PrimaNota.ru - самый крупный в мире бесплатный архив песенных текстов, аккордов, табулатур и нот


Misc Unsigned Bands - Zygote - Kousharee - таба

Регистрация Запомнить меня
Войти через:  Facebook Google Twitter Vk Yandex Mail.ru

Misc Unsigned Bands - Zygote - Kousharee - таба

Печатать
Просмотров: 53
The song may not sound perfect, especially some notes in the solo, except I saw that no 
had tabbed it out yet so at least this is pretty close.

Intro
-12-------------------------------------------------------------------------|
-12-------------------------------------------------------------------------|
-12<--harmonic -------------------------------------------------------------|
-12-----------------------------h.o.---5/12--12--14-------------------------|
-12----------------------------5---7----------------12--14--10--11---h.o.---|
-12-------/12--11--10--9--7--5--------------------------------------12---14-|

-----------------------------------------------------------|
-----------------------------------------------------------|
-----------------------------------------------------------|
-----------------------------h.o.--5/12--12--14------------|  x2
----------------------------5--7----------------12--14--10-|
--/12--12--11--10-=9--7--5---------------------------------|

Verse
--------------------------0---------------------------------------|
-----------------h.o-p.o--0---------------------------------------|
--------------2--0--1--0--------  repeat, end on -----------------|
--2--x--x-----2---------------------------------------------------|
--2--x--x-----0---------------------------------------------10-9--|
--0--x--x--3------------------------------------------------8--7--|

Solo
--------------------------------------------------------------------------|
--------------------------------------------------------------------------|
--14^-12-------------12-12----------------h.o.p.o-------------------------|
---------14-12-14-14-------14-12-14-12-14-12-14-12--12--12--12------------|
--------------------------------------------------14--14--14--14-12-10-10-|
--------------------------------------------------------------------------|


--------------------------------------------------|
--------------------------------------------------|
--------------------------------------------------|
--ho.po--5--ho.po--7--ho.po--7-5---5---p.o--------|
--5-7-5-----5-7-5-----5-7-5------7---7-7-5-3-2----|
--------------------------------------------------|


----------------------------------------------------------------------------|
------------12---------------------ho.po------------------------------------|
--14^-12-14----12-14-12-14-12-14--12-14-12----12-12-----------------ho.po---|
-------------------------------------------14-------14-12-14-12-14-12-14-12-|
----------------------------------------------------------------------------|
----------------------------------------------------------------------------|


----------------------------------------------------------|
----------------------------------------------------------|
---------------------------------------------ho.po--------|
------------ho.po--5--ho.po--7-ho.po---7-5-5-5-7-5--------|
--14-14-12--5-7-5-----5-7-5----5-7-5----------------7-3-2-|
----------------------------------------------------------|


----------------------------------------------ho.po----------ho.po-----------|
------12-12-17^-17-15-17-17-15-17-17-15-17~--15-17-15----15-15-17-15----15---|
--14^-------------------------------------------------17-------------17------|
-----------------------------------------------------------------------------|
-----------------------------------------------------------------------------|
-----------------------------------------------------------------------------|


-----------------------------------------------------------------------|
-------------------------------------p.o-------------------------------|
--17-14-12---ho.po---12--ho.po---14-14-12-14-14-12-------12-14^-14^-14-|
------------12-14-12----12-14-12-------------------14-14---------------|
-----------------------------------------------------------------------|
-----------------------------------------------------------------------|


----------------------------------------------------------------------------|
----------------------------------------------------------------------------|
-14^-14-12---12-14-12-14-12---12--------ho.po-------------------------------|
----------14---------------14---14-12-12-14-12-12-12----12-------p.o.-------|
----------------------------------------------------14----14-14-14-12-10-10-|
----------------------------------------------------------------------------|


---------------------------------------|
---------------------------------------|
-----------------------------p.o-------|
-------5-------7-------7-7-7-7-5-------|
-5-7-5---5-7-5---5-7-5-----------7-3-2-|
---------------------------------------|
Добавлено: 09.10.2013
Другие материалы по этой песне:
  • Аккорды и текст

Страница создана 09.10.2013
http://primanota.ru/misc-unsigned-bands/zygote-kousharee-chords.htm
Привет, Гость.
Предлагаем пройти революционный курс по гитаре.
Подарок от PrimaNota.Ru, забирай!