PrimaNota.ru - самый крупный в мире бесплатный архив песенных текстов, аккордов, табулатур и нот


Misc Unsigned Bands - Xafbx - Seeing Is Denying - таба

Регистрация Запомнить меня
Войти через:  Facebook Google Twitter Vk Yandex Mail.ru

Misc Unsigned Bands - Xafbx - Seeing Is Denying - таба

Печатать
Просмотров: 46
                              Seeing Is Denying                                 


                                                              xArmed For Battlex
Track 1

www.myspace.com/xafbx

             W                   W                   W                 
D||-------|-------------------|-------------------|-------------------|
A||-------|-------------------|-------------------|-------------------|
F||-------|-------------------|-------------------|-------------------|
C||-------|--0----------------|--L----------------|--5----------------|
G||-------|--0----------------|--L----------------|--5----------------|
C||-------|--0----------------|--L----------------|--5----------------|


  S S S S S S S S S S S S S S S S    W                   W                 
----------------------------------|-------------------|-------------------|
----------------------------------|-------------------|-------------------|
----------------------------------|-------------------|-------------------|
----------------------------------|--0----------------|--L----------------|
--8-8-8-8-8-8-8-8-7-7-7-7-7-7-7-7-|--0----------------|--L----------------|
----------------------------------|--0----------------|--L----------------|


  W                   E   E  E  E  E    E   Q      
-------------------|------------------------------|
-------------------|------------------------------|
-------------------|--7S--9--9--9--9S--10--10\----|
--5----------------|------------------------------|
--5----------------|--5S--7--7--7--7S---8---8\----|
--5----------------|------------------------------|


  PM PM PM PM PM   PM   PM      PM PM PM PM PM   PM   PM                        
  S  S  S  S  Q    Q    Q       S  S  S  S  Q    Q    Q       W                 
-----------------------------|-----------------------------|-------------------|
-----------------------------|-----------------------------|-------------------|
-----------------------------|-----------------------------|-------------------|
-----------------------------|-----------------------------|--5----------------|
--0--0--0--0--0----0----0----|--0--0--0--0--0----0----0----|--5----------------|
--0--0--0--0--0----0----0----|--0--0--0--0--0----0----0----|--5----------------|


                                     PM PM PM PM PM   PM   PM    
  S S S S S S S S S S S S S S S S    S  S  S  S  Q    Q    Q     
----------------------------------|-----------------------------|
----------------------------------|-----------------------------|
----------------------------------|-----------------------------|
--8-8-8-8-8-8-8-8-7-7-7-7-7-7-7-7-|-----------------------------|
----------------------------------|--0--0--0--0--0----0----0----|
----------------------------------|--0--0--0--0--0----0----0----|


  PM PM PM PM PM   PM   PM                        
  S  S  S  S  Q    Q    Q       W                 
-----------------------------|-------------------|
-----------------------------|-------------------|
-----------------------------|-------------------|
-----------------------------|--5----------------|
--0--0--0--0--0----0----0----|--5----------------|
--0--0--0--0--0----0----0----|--5----------------|


                                 PM PM PM PM PM   PM   PM    
  E   E  E  E  E    E   Q        S  S  S  S  Q    Q    Q     
------------------------------|-----------------------------|
------------------------------|-----------------------------|
--7S--9--9--9--9S--10--10\----|-----------------------------|
------------------------------|-----------------------------|
--5S--7--7--7--7S---8---8\----|--0--0--0--0--0----0----0----|
------------------------------|--0--0--0--0--0----0----0----|


  PM PM PM PM PM   PM   PM                        
  S  S  S  S  Q    Q    Q       W                 
-----------------------------|-------------------|
-----------------------------|-------------------|
-----------------------------|-------------------|
-----------------------------|--5----------------|
--0--0--0--0--0----0----0----|--5----------------|
--0--0--0--0--0----0----0----|--5----------------|


                                     PM PM PM PM PM   PM   PM    
  S S S S S S S S S S S S S S S S    S  S  S  S  Q    Q    Q     
----------------------------------|-----------------------------|
----------------------------------|-----------------------------|
----------------------------------|-----------------------------|
----------------------------------|-----------------------------|
--8-8-8-8-8-8-8-8-7-7-7-7-7-7-7-7-|--0--0--0--0--0----0----0----|
----------------------------------|--0--0--0--0--0----0----0----|


  PM PM PM PM PM   PM   PM                        
  S  S  S  S  Q    Q    Q       W                 
-----------------------------|-------------------|
-----------------------------|-------------------|
-----------------------------|-------------------|
-----------------------------|--5----------------|
--0--0--0--0--0----0----0----|--5----------------|
--0--0--0--0--0----0----0----|--5----------------|


  E   E  E  E  E    E   Q        W                   W                 
------------------------------|-------------------|-------------------|
------------------------------|-------------------|-------------------|
--7S--9--9--9--9S--10--10\----|-------------------|-------------------|
------------------------------|--0----------------|--L----------------|
--5S--7--7--7--7S---8---8\----|--0----------------|--L----------------|
------------------------------|--0----------------|--L----------------|


  W                   W                   H           Q    Q    Q    Q     
-------------------|-------------------|-----------|----------------------|
-------------------|-------------------|-----------|----------------------|
-------------------|-------------------|-----------|----------------------|
--L----------------|--L----------------|--L--------|----------------------|
--L----------------|--L----------------|--L--------|--0----0----0---------|
--L----------------|--L----------------|--L--------|--0----0----0---------|


          PM PM PM PM PM PM PM PM PM PM PM PM PM PM PM PM  
          S  S  S  S  S  S  S  S  S  S  S  S  S  S  S  S   
-------|--------------------------------------------------|
-------|--------------------------------------------------|
-------|--------------------------------------------------|
-------|--------------------------------------------------|
-------|--0--0--0--0--0--0--0--0--0--0--0--0--0--0--0--0--|
-------|--0--0--0--0--0--0--0--0--0--0--0--0--0--0--0--0--|


           PM PM PM PM PM       PM PM PM PM PM    PM PM PM PM PM PM PM PM  
  H        S  S  S  S  E  E     S  S  S  S  E  E  S  S  S  S  S  S  S  S   
-----------------------------|--------------------------------------------|
-----------------------------|--------------------------------------------|
-----------------------------|--------------------------------------------|
-----------------------------|--------------------------------------------|
-----------0--0--0--0--0-----|--0--0--0--0--0-----0--0--0--0--0--0--0--0--|
-----------0--0--0--0--0-----|--0--0--0--0--0-----0--0--0--0--0--0--0--0--|


  PM PM PM PM PM PM PM PM             PM PM PM PM PM    PM PM PM PM PM          
  S  S  S  S  S  S  S  S  H           S  S  S  S  E  E  S  S  S  S  E  E        
-----------------------------------|--------------------------------------|----|
-----------------------------------|--------------------------------------|----|
-----------------------------------|--------------------------------------|----|
-----------------------------------|--------------------------------------|----|
--0--0--0--0--0--0--0--0-----------|--0--0--0--0--0-----0--0--0--0--0-----|----|
--0--0--0--0--0--0--0--0-----------|--0--0--0--0--0-----0--0--0--0--0-----|----|


  PM PM PM PM PM PM PM PM PM          PM PM PM PM PM   PM PM PM PM PM    
  S  S  S  S  S  S  S  S  H           S  S  S  S  Q    S  S  S  S  Q     
-----------------------------------|------------------------------------|
-----------------------------------|------------------------------------|
-----------------------------------|------------------------------------|
-----------------------------------|------------------------------------|
--0--0--0--0--0--0--0--0--0--------|--0--0--0--0--0----0--0--0--0--0----|
--0--0--0--0--0--0--0--0--0--------|--0--0--0--0--0----0--0--0--0--0----|


  PM PM PM PM PM PM PM PM PM          PM PM PM PM PM   PM PM PM PM PM    
  S  S  S  S  S  S  S  S  H           S  S  S  S  Q    S  S  S  S  Q     
-----------------------------------|------------------------------------|
-----------------------------------|------------------------------------|
-----------------------------------|------------------------------------|
-----------------------------------|------------------------------------|
--0--0--0--0--0--0--0--0--0--------|--0--0--0--0--0----0--0--0--0--0----|
--0--0--0--0--0--0--0--0--0--------|--0--0--0--0--0----0--0--0--0--0----|


  PM PM PM PM PM PM PM PM PM           PM PM PM PM PM    PM PM PM PM PM     
  S  S  S  S  S  S  S  S  E  Q.        S  S  S  S  E  E  S  S  S  S  E  E   
------------------------------------|--------------------------------------|
------------------------------------|--------------------------------------|
------------------------------------|--------------------------------------|
------------------------------------|--------------------------------------|
--0--0--0--0--0--0--0--0--0---------|--0--0--0--0--0-----0--0--0--0--0-----|
--0--0--0--0--0--0--0--0--0---------|--0--0--0--0--0-----0--0--0--0--0-----|


  PM PM PM PM PM PM PM PM PM           PM PM PM PM PM    PM PM PM PM PM     
  S  S  S  S  S  S  S  S  E  Q.        S  S  S  S  E  E  S  S  S  S  E  E   
------------------------------------|--------------------------------------|
------------------------------------|--------------------------------------|
------------------------------------|--------------------------------------|
------------------------------------|--------------------------------------|
--0--0--0--0--0--0--0--0--0---------|--0--0--0--0--0-----0--0--0--0--0-----|
--0--0--0--0--0--0--0--0--0---------|--0--0--0--0--0-----0--0--0--0--0-----|


  PM PM PM PM PM PM PM PM PM          PM PM PM PM PM   PM PM PM PM PM    
  S  S  S  S  S  S  S  S  H           S  S  S  S  Q    S  S  S  S  Q     
-----------------------------------|------------------------------------|
-----------------------------------|------------------------------------|
-----------------------------------|------------------------------------|
-----------------------------------|------------------------------------|
--0--0--0--0--0--0--0--0--0--------|--0--0--0--0--0----0--0--0--0--0----|
--0--0--0--0--0--0--0--0--0--------|--0--0--0--0--0----0--0--0--0--0----|


  PM PM PM PM PM PM PM PM PM          PM PM PM PM PM   PM PM PM PM PM    
  S  S  S  S  S  S  S  S  H           S  S  S  S  Q    S  S  S  S  Q     
-----------------------------------|------------------------------------|
-----------------------------------|------------------------------------|
-----------------------------------|------------------------------------|
-----------------------------------|------------------------------------|
--0--0--0--0--0--0--0--0--0--------|--0--0--0--0--0----0--0--0--0--0----|
--0--0--0--0--0--0--0--0--0--------|--0--0--0--0--0----0--0--0--0--0----|


       PM PM PM    PM          PM PM PM PM PM PM          PM PM PM PM PM PM     
  Q    E  E  E  E  E  E     E  E  E  E  E  E  E  E     E  E  E  E  E  E  E  E   
-------------------------|--------------------------|--------------------------|
-------------------------|--------------------------|--------------------------|
-------------------------|--------------------------|--------------------------|
----------------5-----7--|--L-----------------------|--------------------------|
--0-------------3-----5--|--L--------------------3--|--L--------------------5--|
--0----0--0--0-----0-----|-----0--0--0--0--0--0--3--|--L--3--3--3--3--3--3--5--|


     PM PM      PM PM PM         PM PM PM    PM          PM PM PM PM PM PM     
  E  E  E  Q    E  E  E     Q    E  E  E  E  E  E     E  E  E  E  E  E  E  E   
-------------------------|-------------------------|--------------------------|
-------------------------|-------------------------|--------------------------|
-------------------------|-------------------------|--------------------------|
-------------------------|----------------5-----7--|--L-----------------------|
--L--------7-------------|--0-------------7-----8--|--L--------------------8--|
--L--5--5--7----7--7--7--|--0----0--0--0-----0-----|-----0--0--0--0--0--0--8--|


     PM PM PM PM PM PM                                      PM PM PM    PM     
  E  E  E  E  E  E  E  E     E  E  E  E  E  E  Q       Q    E  E  E  E  E  E   
--------------------------|-------------------------|-------------------------|
--------------------------|-------------------------|-------------------------|
-----------------------9--|--L--9--9--9--9--9--9----|-------------------------|
--------------------------|-------------------------|----------------5-----7--|
--L--------------------7--|--L--7--7--7--7--7--7----|--0-------------3-----5--|
--L--8--8--8--8--8--8-----|-------------------------|--0----0--0--0-----0-----|


     PM PM PM PM PM PM          PM PM PM PM PM PM          PM PM      PM PM PM  
  E  E  E  E  E  E  E  E     E  E  E  E  E  E  E  E     E  E  E  Q    E  E  E   
--------------------------|--------------------------|-------------------------|
--------------------------|--------------------------|-------------------------|
--------------------------|--------------------------|-------------------------|
--L-----------------------|--------------------------|-------------------------|
--L--------------------3--|--L--------------------5--|--L--------7-------------|
-----0--0--0--0--0--0--3--|--L--3--3--3--3--3--3--5--|--L--5--5--7----7--7--7--|


       PM PM PM    PM          PM PM PM PM PM PM          PM PM PM PM PM PM     
  Q    E  E  E  E  E  E     E  E  E  E  E  E  E  E     E  E  E  E  E  E  E  E   
-------------------------|--------------------------|--------------------------|
-------------------------|--------------------------|--------------------------|
-------------------------|--------------------------|-----------------------9--|
----------------5-----7--|--L-----------------------|--------------------------|
--0-------------7-----8--|--L--------------------8--|--L--------------------7--|
--0----0--0--0-----0-----|-----0--0--0--0--0--0--8--|--L--8--8--8--8--8--8-----|


                            PM PM PM PM PM PM PM PM PM    PM PM PM PM  
  E  E  E  E  E  E  Q       S  S  S  S  S  S  S  S  E  E  S  S  S  S   
-------------------------|--------------------------------------------|
-------------------------|--------------------------------------------|
--L--9--9--9--9--9--9----|--------------------------------------------|
-------------------------|--------------------------------------------|
--L--7--7--7--7--7--7----|--0--0--0--0--0--0--0--0--0-----0--0--0--0--|
-------------------------|--0--0--0--0--0--0--0--0--0-----0--0--0--0--|


  PM    PM PM PM PM PM PM PM         PM PM PM PM PM PM PM PM PM    PM PM PM PM  
  E  E  S  S  S  S  E  S  S  Q       S  S  S  S  S  S  S  S  E  E  S  S  S  S   
----------------------------------|--------------------------------------------|
----------------------------------|--------------------------------------------|
----------------------------------|--------------------------------------------|
-----------------------------0----|--------------------------------------------|
--0-----0--0--0--0--0--0--0--0----|--0--0--0--0--0--0--0--0--0-----0--0--0--0--|
--0-----0--0--0--0--0--0--0--0----|--0--0--0--0--0--0--0--0--0-----0--0--0--0--|


  PM    PM PM PM PM PM PM PM         PM PM PM PM PM PM PM PM PM   PM PM PM PM  
  E  E  S  S  S  S  E  S  S  Q       S  S  S  S  S  S  S  S  Q    S  S  S  S   
----------------------------------|-------------------------------------------|
----------------------------------|-------------------------------------------|
----------------------------------|-------------------------------------------|
-----------------------------0----|-------------------------------------------|
--0-----0--0--0--0--0--0--0--0----|--0--0--0--0--0--0--0--0--0----0--0--0--0--|
--0-----0--0--0--0--0--0--0--0----|--0--0--0--0--0--0--0--0--0----0--0--0--0--|


  PM   PM PM PM PM PM PM         PM PM PM PM PM PM PM PM PM   PM PM PM PM  
  Q    S  S  S  S  E  E  Q       S  S  S  S  S  S  S  S  Q    S  S  S  S   
------------------------------|-------------------------------------------|
------------------------------|-------------------------------------------|
------------------------------|-------------------------------------------|
------------------------------|-------------------------------------------|
--0----0--0--0--0--0--0--0----|--0--0--0--0--0--0--0--0--0----0--0--0--0--|
--0----0--0--0--0--0--0--0----|--0--0--0--0--0--0--0--0--0----0--0--0--0--|


  PM   PM PM PM PM PM PM                                               
  Q    S  S  S  S  E  E  Q       W                   W                 
------------------------------|-------------------|-------------------|
------------------------------|-------------------|-------------------|
------------------------------|-------------------|-------------------|
------------------------------|--0----------------|--L----------------|
--0----0--0--0--0--0--0--0----|--0----------------|--L----------------|
--0----0--0--0--0--0--0--0----|--0----------------|--L----------------|


  W                   W                   H           Q    Q    Q    Q     
-------------------|-------------------|-----------|----------------------|
-------------------|-------------------|-----------|----------------------|
-------------------|-------------------|-----------|----------------------|
--L----------------|--L----------------|--L--------|----------------------|
--L----------------|--L----------------|--L--------|--0----0----0---------|
--L----------------|--L----------------|--L--------|--0----0----0---------|


          Q    S S S S S S S S S S S S    S S S S S S S S S S S S S S S S  
-------|-------------------------------|----------------------------------|
-------|-------------------------------|----------------------------------|
-------|-------------------------------|----------------------------------|
-------|-------7-7-7-7-7-7-7-7-7-7-7-7-|--7-7-7-7-7-7-7-7-7-7-7-7-7-7-7-7-|
-------|-------------------------------|----------------------------------|
-------|--0----------------------------|----------------------------------|


  Q    S S S S S S S S S S S S    S S S S S S S S S S S S S S S S  
-------------------------------|----------------------------------|
-------------------------------|----------------------------------|
-------------------------------|----------------------------------|
-------5-5-5-5-5-5-5-5-5-5-5-5-|--7-7-7-7-7-7-7-7-8-8-8-8-8-8-8-8-|
-------------------------------|----------------------------------|
--7----------------------------|----------------------------------|


  Q    S S S S S S S S S S S S    S S S S S S S S S S S S S S S S  
-------------------------------|----------------------------------|
-------------------------------|----------------------------------|
-------------------------------|----------------------------------|
-------5-5-5-5-7-7-7-7-7-7-7-7-|--8-8-8-8-8-8-8-8-8-8-8-8-8-8-8-8-|
-------------------------------|----------------------------------|
--5----------------------------|----------------------------------|


  Q    S S S S S S S S S S S S    S S S S S S S S  S  S  S  S  S  S  S  S  
-------------------------------|------------------------------------------|
-------------------------------|------------------------------------------|
-------------------------------|------------------------------------------|
-------5-5-5-5-7-7-7-7-7-7-7-7-|--8-8-8-8-8-8-8-8-10-10-10-10-10-10-10-10-|
-------------------------------|------------------------------------------|
--8----------------------------|------------------------------------------|


  Q    S S S S S S S S S S S S    S S S S S S S S S S S S S S S S  
-------------------------------|----------------------------------|
-------------------------------|----------------------------------|
-------------------------------|----------------------------------|
-------7-7-7-7-7-7-7-7-7-7-7-7-|--7-7-7-7-7-7-7-7-7-7-7-7-7-7-7-7-|
-------------------------------|----------------------------------|
--0----------------------------|----------------------------------|


  Q    S S S S S S S S S S S S    S S S S S S S S S S S S S S S S  
-------------------------------|----------------------------------|
-------------------------------|----------------------------------|
-------------------------------|----------------------------------|
-------5-5-5-5-5-5-5-5-5-5-5-5-|--7-7-7-7-7-7-7-7-8-8-8-8-8-8-8-8-|
-------------------------------|----------------------------------|
--7----------------------------|----------------------------------|


  Q    S S S S S S S S S S S S    S S S S S S S S S S S S S S S S  
-------------------------------|----------------------------------|
-------------------------------|----------------------------------|
-------------------------------|----------------------------------|
-------5-5-5-5-7-7-7-7-7-7-7-7-|--8-8-8-8-8-8-8-8-8-8-8-8-8-8-8-8-|
-------------------------------|----------------------------------|
--5----------------------------|----------------------------------|


  Q    S S S S S S S S S S S S    S S S S S S S S  S  S  S  S  S  S  S  S  
-------------------------------|------------------------------------------|
-------------------------------|------------------------------------------|
-------------------------------|------------------------------------------|
-------5-5-5-5-7-7-7-7-7-7-7-7-|--8-8-8-8-8-8-8-8-10-10-10-10-10-10-10-10-|
-------------------------------|------------------------------------------|
--8----------------------------|------------------------------------------|


                                               PM PM PM PM PM PM     
  W                   H.           E  E     E  E  E  E  E  E  E  E   
-------------------|---------------------|--------------------------|
-------------------|---------------------|--------------------------|
-------------------|---------------------|--------------------------|
--0----------------|--L------------L--3--|--------------------------|
--0----------------|--L------------L--3--|--L--------------------5--|
--0----------------|--L------------L--3--|--L--3--3--3--3--3--3--5--|


     PM PM      PM PM PM                                            
  E  E  E  Q    E  E  E     W                   H.           E  E   
-------------------------|-------------------|---------------------|
-------------------------|-------------------|---------------------|
-------------------------|-------------------|---------------------|
-------------------------|--0----------------|--L------------L--8--|
--L--------7-------------|--0----------------|--L------------L--8--|
--L--5--5--7----7--7--7--|--0----------------|--L------------L--8--|


     PM PM PM PM PM PM                                      PM PM PM    PM     
  E  E  E  E  E  E  E  E     E  E  E  E  E  E  Q       Q    E  E  E  E  E  E   
--------------------------|-------------------------|-------------------------|
--------------------------|-------------------------|-------------------------|
-----------------------9--|--L--9--9--9--9--9--9----|-------------------------|
--L-----------------------|-------------------------|----------------5-----7--|
--L--------------------7--|--L--7--7--7--7--7--7----|--0-------------3-----5--|
--L--8--8--8--8--8--8-----|-------------------------|--0----0--0--0-----0-----|


     PM PM PM PM PM PM          PM PM PM PM PM PM          PM PM      PM PM PM  
  E  E  E  E  E  E  E  E     E  E  E  E  E  E  E  E     E  E  E  Q    E  E  E   
--------------------------|--------------------------|-------------------------|
--------------------------|--------------------------|-------------------------|
--------------------------|--------------------------|-------------------------|
--L-----------------------|--------------------------|-------------------------|
--L--------------------3--|--L--------------------5--|--L--------7-------------|
-----0--0--0--0--0--0--3--|--L--3--3--3--3--3--3--5--|--L--5--5--7----7--7--7--|


       PM PM PM    PM          PM PM PM PM PM PM          PM PM PM PM PM PM     
  Q    E  E  E  E  E  E     E  E  E  E  E  E  E  E     E  E  E  E  E  E  E  E   
-------------------------|--------------------------|--------------------------|
-------------------------|--------------------------|--------------------------|
-------------------------|--------------------------|-----------------------9--|
----------------5-----7--|--L-----------------------|--------------------------|
--0-------------7-----8--|--L--------------------8--|--L--------------------7--|
--0----0--0--0-----0-----|-----0--0--0--0--0--0--8--|--L--8--8--8--8--8--8-----|


                                 PM PM PM    PM          PM PM PM PM PM PM     
  E  E  E  E  E  E  Q       Q    E  E  E  E  E  E     E  E  E  E  E  E  E  E   
-------------------------|-------------------------|--------------------------|
-------------------------|-------------------------|--------------------------|
--L--9--9--9--9--9--9----|-------------------------|--------------------------|
-------------------------|----------------5-----7--|--L-----------------------|
--L--7--7--7--7--7--7----|--0-------------3-----5--|--L--------------------3--|
-------------------------|--0----0--0--0-----0-----|-----0--0--0--0--0--0--3--|


     PM PM PM PM PM PM          PM PM      PM PM PM         PM PM PM    PM     
  E  E  E  E  E  E  E  E     E  E  E  Q    E  E  E     Q    E  E  E  E  E  E   
--------------------------|-------------------------|-------------------------|
--------------------------|-------------------------|-------------------------|
--------------------------|-------------------------|-------------------------|
--------------------------|-------------------------|----------------5-----7--|
--L--------------------5--|--L--------7-------------|--0-------------7-----8--|
--L--3--3--3--3--3--3--5--|--L--5--5--7----7--7--7--|--0----0--0--0-----0-----|


       PM PM PM    PM          PM PM PM PM PM PM          PM PM PM PM PM PM     
  Q    E  E  E  E  E  E     E  E  E  E  E  E  E  E     E  E  E  E  E  E  E  E   
-------------------------|--------------------------|--------------------------|
-------------------------|--------------------------|--------------------------|
-------------------------|--------------------------|--------------------------|
----------------5-----7--|--L-----------------------|--------------------------|
--0-------------3-----5--|--L--------------------3--|--L--------------------5--|
--0----0--0--0-----0-----|-----0--0--0--0--0--0--3--|--L--3--3--3--3--3--3--5--|


     PM PM      PM PM PM         PM PM PM    PM          PM PM PM PM PM PM     
  E  E  E  Q    E  E  E     Q    E  E  E  E  E  E     E  E  E  E  E  E  E  E   
-------------------------|-------------------------|--------------------------|
-------------------------|-------------------------|--------------------------|
-------------------------|-------------------------|--------------------------|
-------------------------|----------------5-----7--|--L-----------------------|
--L--------7-------------|--0-------------7-----8--|--L--------------------8--|
--L--5--5--7----7--7--7--|--0----0--0--0-----0-----|-----0--0--0--0--0--0--8--|


     PM PM PM PM PM PM                                 PM PM          PM PM  
  E  E  E  E  E  E  E  E     E  E  E  E  E  E  Q       E  H        E  E  E   
--------------------------|-------------------------|-----------------------|
--------------------------|-------------------------|-----------------------|
-----------------------9--|--L--9--9--9--9--9--9----|-----------------------|
--------------------------|-------------------------|-----------------------|
--L--------------------7--|--L--7--7--7--7--7--7----|--0--0--------L--0--0--|
--L--8--8--8--8--8--8-----|-------------------------|--0--0--------L--0--0--|


  PM PM                 PM PM          PM PM    PM                  
  E  H.           E     E  H        E  E  E     E  H.           E   
---------------------|-----------------------|---------------------|
---------------------|-----------------------|---------------------|
---------------------|-----------------------|---------------------|
---------------------|-----------------------|---------------------|
--0--0------------L--|--0--0--------L--0--0--|--0--0------------L--|
--0--0------------L--|--0--0--------L--0--0--|--0--0------------L--|


  PM PM          PM PM    PM PM                 PM PM          PM PM  
  E  H        E  E  E     E  H.           E     E  H        E  E  E   
-----------------------|---------------------|-----------------------|
-----------------------|---------------------|-----------------------|
-----------------------|---------------------|-----------------------|
-----------------------|---------------------|-----------------------|
--0--0--------L--0--0--|--0--0------------L--|--0--0--------L--0--0--|
--0--0--------L--0--0--|--0--0------------L--|--0--0--------L--0--0--|


  PM PM                 PM PM          PM PM    PM PM               
  E  H.           E     E  H        E  E  E     E  H.           E   
---------------------|-----------------------|---------------------|
---------------------|-----------------------|---------------------|
---------------------|-----------------------|---------------------|
---------------------|-----------------------|---------------------|
--0--0------------L--|--0--0--------L--0--0--|--0--0------------L--|
--0--0------------L--|--0--0--------L--0--0--|--0--0------------L--|


  PM PM          PM PM    PM                                        
  E  H        E  E  E     E  H.           E     E  H.           E   
-----------------------|---------------------|---------------------|
-----------------------|---------------------|---------------------|
-----------------------|---------------------|---------------------|
-----------------------|---------------------|---------------------|
--0--0--------L--0--0--|--0--0------------L--|--0--0------------L--|
--0--0--------L--0--0--|--0--0------------L--|--0--0------------L--|


       PM PM PM PM                                   PM PM PM PM      
  Q    E  E  E  Q.        E  H.           E     Q    E  E  E  Q.      
-----------------------|---------------------|-----------------------|
-----------------------|---------------------|-----------------------|
-----------------------|---------------------|-----------------------|
-----------------------|---------------------|-----------------------|
--L----0--0--0--0------|--0--0------------L--|--L----0--0--0--0------|
--L----0--0--0--0------|--0--0------------L--|--L----0--0--0--0------|


                             PM PM PM PM                            
  E  H.           E     Q    E  E  E  Q.        E  H.           E   
---------------------|-----------------------|---------------------|
---------------------|-----------------------|---------------------|
---------------------|-----------------------|---------------------|
---------------------|-----------------------|---------------------|
--0--0------------L--|--L----0--0--0--0------|--0--0------------L--|
--0--0------------L--|--L----0--0--0--0------|--0--0------------L--|


       PM PM PM PM                             
  Q    E  E  E  Q.        E  H.           E    
-----------------------|---------------------||
-----------------------|---------------------||
-----------------------|---------------------||
-----------------------|---------------------||
--L----0--0--0--0------|--0--0------------L--||
--L----0--0--0--0------|--0--0------------L--||
Добавлено: 21.01.2014
Другие материалы по этой песне:
  • Аккорды и текст

Страница создана 21.01.2014
http://primanota.ru/misc-unsigned-bands/xafbx-seeing-is-denying-chords.htm
Привет, Гость.
Предлагаем пройти революционный курс по гитаре.
Подарок от PrimaNota.Ru, забирай!