PrimaNota.ru - самый крупный в мире бесплатный архив песенных текстов, аккордов, табулатур и нот


Misc Unsigned Bands - Xafbx - Xtrust And Believex - таба

Регистрация Запомнить меня
Войти через:  Facebook Google Twitter Vk Yandex Mail.ru

Misc Unsigned Bands - Xafbx - Xtrust And Believex - таба

Печатать
Просмотров: 78
Уроки эстрадного вокала в Санкт-Петербурге
-------------------------------------------------------------------------------
                             Trust and Believe - Armed For Battle(XAFBX)
-------------------------------------------------------------------------------
Tabbed by:Zach Dick
Email:atmbeam@yahoo.com

http://www.myspace.com/xAFBx

Tuning:Drop D

Im not straightedge but i love this song.1st tab by the way.

Intro:
e|-----------------------------------------------------------------------------|
B|-----------------------------------------------------------------------------|
G|-----------------------------------------------------------------------------|
D|-----------------------------------------------------------------------------|
A|0--8--7--5-----8---8------10---0----5--4--7-----10----8--7--13-12-10--8------|
D|0--------------8-------10------0---------------------------------------------|X2

Verse:0:30
e|--------------------------------------------------------------------------------|
B|--------------------------------------------------------------------------------|
G|---------------------------------------7-777777-9999999-10----------------------|
D|---------------------------------------x-xxxxxx-xxxxxxx-x-----------------------|
A|0-0-0-0-0-0--[-0-------8-----7-----5---5-555555-7777777-8------0------5---4-----|
D|0-0-0-0-0-0--[-0---0-0---0-0---0-0--0-0------------------------0--0-0--0-0-0----|
  . . . . . .       . .   . .   . .  . .                          . .  . . .
e|--------------------------------------------------------------------------|
B|--------------------------------------------------------------------------|
G|----------10-1010101010-77776666------------------------------------------|
D|----------x--x-x-x-x-x--xxxxxxxx-]----------------------------------------|
A|---7------8--8-8-8-8-8--55554444-]-----*repeat everything in brackets*----|
D|0-0--0-0------------------------------------------------------------------|
  . .  . .

 0:55
e|---------------------------------------------------------------------------|
B|---------------------------------------------------------------------------|
G|---------------------------------------------------------------------------|
D|--------------------5h7-----------------------555555666666-----------------|
A|-------5h7-------5h7---4h6-------5h7---------------------------------------|
D|-00-00-----00-00-----------00-00-----00-00---------------------------------|X4
   .. ..     .. ..           .. ..     .. ..
 1:22
e|-----------------------------------------------------------------------------|
B|-----------------------------------------------------------------------------|
G|-----------------------------------------------------------------------------|
D|------------------------------------------------------555555566666666--------|
A|----------------*The Sweep*--------------------------------------------------|
D|-00-00---00-00---------------00-00---00-00--00-00--00------------------------|
   .. ..   .. ..               .. ..   .. ..  .. ..  ..
e|-----------------------------------------------------------------------------|
B|-----------------------------------------------------------------------------|
G|-----------------------------------------------------------------------------|
D|--------------------55555556666666-------------------------------------------|
A|------------------------------------Intro again with breakdown on guitar2----|
D|-00-00---00-00--00-----------------------------------------------------------|
   .. ..   .. ..  ..
 1:52
e|--------------------------------------------------------------------------------|
B|--------------------------------------------------------------------------------|
G|--------------------------------------------------------------------------------|
D|--------------------------------------------------------------------------------|
A|-0---8--7--5-------8-8--------10-------0-----5--4--7---10--8-7-13-12-10-8---0---|
D|-0------------0-0--8----0-0-10----0-0--0------------------------------------0---|X2
                . .       . .       . .
2:22
e|------------------------------------------------------------------------------|
B|------------------------------------------------------------------------------|
G|-----------------------------------7-777777-9999999-10------------------------|
D|-----------------------------------x-xxxxxx-xxxxxxx-x-------------------------|
A|--0---0-0-0-0-0--0-0---0-0-0-0-0---5-555555-7777777-8---0--0-0-0-0-0-0--0-----|
D|--0---0-0-0-0-0--0-0---0-0-0-0-0------------------------0--0-0-0-0-0-0--0-----|
        . . . . .        . . . . .                        .  . . . . . .
e|-------------------------------------------------------------------------|
B|-------------------------------------------------------------------------|
G|---------------10-101010101010-99999999----------------------------------|
D|---------------x--x-x-x-x-x-x--xxxxxxxx----------------------------------|
A|-0-0-0-0-0-0---8--8-8-8-8-8-8--77777777----------------------------------|
D|-0-0-0-0-0-0-------------------------------------------------------------|X2
   . . . . . .
the rest is pretty much self explanatory. its the same notes as above just different 
you can do it.I think its funny how this song is exactly 4:20.
hahaha
Добавлено: 17.11.2013
Другие материалы по этой песне:
  • Аккорды и текст

Страница создана 17.11.2013
http://primanota.ru/misc-unsigned-bands/xafbx-xtrust-and-believex-chords.htm
Привет, Гость.
Предлагаем пройти революционный курс по гитаре.
Подарок от PrimaNota.Ru, забирай!