PrimaNota.ru - самый крупный в мире бесплатный архив песенных текстов, аккордов, табулатур и нот


Misc Unsigned Bands - Zeke Whiting - Song I - таба

Регистрация Запомнить меня
Войти через:  Facebook Google Twitter Vk Yandex Mail.ru

Misc Unsigned Bands - Zeke Whiting - Song I - таба

Печатать
Просмотров: 71
Zeke Whiting - Song I
Tabbed by: Zeke Whiting
Email: ezwhiting@gmail.com
Tuning: Drop D
Guitar: Drop D (DADGBe) Slight Chorus Effect on Clean Electric

  6x
e|-----------------------------------------------------------------|
B|-----------------------------------------------------------------|
G|-----------------------------------------------------------------|
D|----8-----6-----4-----1------------------------------------------|
A|--8-----6-----4-----1--------------------------------------------|
D|8-----6-----4-----1----------------------------------------------|

  2x
e|-----------------------------------------------------------------|
B|------11\-------9\-------7\-------4\-----------------------------|
G|------10\-------8\-------6\-------3\-----------------------------|
D|----8---------6--------4--------1--------------------------------|
A|--8---------6--------4--------1----------------------------------|
D|8---------6--------4--------1------------------------------------|

  4x
e|-----------------------------------------------------------------|
B|-----------------------------------------------------------------|
G|-----------------------------------------------------------------|
D|----8-----6-----4-----1------------------------------------------|
A|--8-----6-----4-----1--------------------------------------------|
D|8-----6-----4-----1----------------------------------------------|

  2x
e|-----------------------------------------------------------------|
B|------11\-------9\-------7\-------4\-----------------------------|
G|------10\-------8\-------6\-------3\-----------------------------|
D|----8---------6--------4--------1--------------------------------|
A|--8---------6--------4--------1----------------------------------|
D|8---------6--------4--------1------------------------------------|

  4x
e|-----------------------------------------------------------------|
B|-----------------------------------------------------------------|
G|-----------------------------------------------------------------|
D|----8-----6-----4-----1------------------------------------------|
A|--8-----6-----4-----1--------------------------------------------|
D|8-----6-----4-----1----------------------------------------------|

  Solo
e|-----------------------------------------------------------------|
B|-----------------------------------------------------------------|
G|--------------------------8-6-5---5-3-1-----------------6-----8--|
D|----6-----8-----6-----8-------------------------------6-----8----|
A|6/8---6/8---6/8---6/8---6-------4-------4/6-4-------8-----6-----8|
D|----------------------------------------------6/8-6--------------|

e|------------------------------------9----------------------------|
B|--------------------------------------9-6------------------------|
G|----------------6-8-6-------------6-------8b-6-8b-6--------------|
D|--------------6-------------------------------------8-6\1/3/15~--|
A|6-4-3-6-4-3-1---------6-----4h6/8--------------------------------|
D|------------------------6h8--------------------------------------|



e|-----------------------------------------------------------------|
B|---------------------------------------9----9---7---7------------|
G|---6-----------6-8-8/10-10-8-6---6-/10---10---8---8---9-8-6---6b-|
D|---6---------------------------8----------------------------8----|
A|/8---8-6\4/6\4---------------------------------------------------|
D|-----------------------------------------------------------------|

e|----------------------------------------------9---9-8h9/11-9-6\4-|
B|------------------------------------------6/9---9----------------|
G|----6-----------6-6/8-8-6-3---------1h2h3------------------------|
D|--8---8---------6-6/8-8-6-3---3\1-3------------------------------|
A|6-------6h8p6\4-------------4------------------------------------|
D|-----------------------------------------------------------------|

e|---------4-----------------11-11-11-11-9\8-6-----9-11/13-11-11b--|
B|6-4b\2/4-4---4---4-4\2/4-1-11-11-11-11-9\8-6-/11-----------------|
G|-----------5---6---5\3/5-1---------------------------------------|
D|-----------------------------------------------------------------|
A|-----------------------------------------------------------------|
D|-----------------------------------------------------------------|

e|11b-----------------6p4\3-4-3h4p3\1---6/8-6----------------------|
B|----6p4\3-4-3h4p3\1-----------------3-------6b-9-8-6----------9b-|
G|-----------------------------------------------------8/10-8-6----|
D|-----------------------------------------------------------------|
A|-----------------------------------------------------------------|
D|-----------------------------------------------------------------|

e|-----------------------------------------------------------------|
B|-----------------------------------------------------------------|
G|8----------------------------------------------------------------|
D|8-6-8-6-4-1-1~---------------------------------------------------|
A|----8-6-4-1-1~---------------------------------------------------|
D|----8-6-4-1-1~---------------------------------------------------|
Добавлено: 08.06.2013
Другие материалы по этой песне:
  • Аккорды и текст

Страница создана 08.06.2013
http://primanota.ru/misc-unsigned-bands/zeke-whiting-song-i-chords.htm
Привет, Гость.
Предлагаем пройти революционный курс по гитаре.
Подарок от PrimaNota.Ru, забирай!