PrimaNota.ru - самый крупный в мире бесплатный архив песенных текстов, аккордов, табулатур и нот


Misc Unsigned Bands - Voyager - On Run From The World - таба

Регистрация Запомнить меня
Войти через:  Facebook Google Twitter Vk Yandex Mail.ru

Misc Unsigned Bands - Voyager - On Run From The World - таба

Печатать
Просмотров: 53
-------------------------------------------------------------------------------
                             On Run From the World - Voyager
-------------------------------------------------------------------------------
Tabbed by: Muntificator
E-mail:

Tuning: Drop D (eBGDAD)

Intro/Main Riff (7/8 time signature here)
e|----------------------------------------------------------------------------|
B|---7-8-------7--------------------------------------------------------------|
G|---------7-9-------7-6---6-7------------------------------------------------|
D|-9-----9-------9-7-----9----------------------------------------------------| x3
A|----------------------------------------------------------------------------|
D|----------------------------------------------------------------------------|

e|-----------------------------------------------------------------------------|
B|-----------------------------------------------------------------------------|
G|-7--7-7-7-7-/11-9--9--9------------------------------------------------------|
D|-------------------------7--7/9----------------------------------------------|
A|-----------------------------------------------------------------------------|
D|-----------------------------------------------------------------------------|


Verse
e|---------------------------------------------------------------------------------|
B|---------------------------------------------------------------------------------|
G|---------------------------------------------------------------------------------|
D|---------------------------4-2---2------------2h4-----2h4-----2h4-----2h4--------|
A|-22222------------22222-------5---5-4--------------------0-0------0-0------------| x2
D|-------------------------------------------5-5-----5-5---------------------------|


Pre-Chorus
(I can help you lead your life)
e|-----------------------------------------------------------------------------|
B|-----------------------------------------------------------------------------|
G|-----------------------------------------------------------------------------|
D|------2h4-----2h4------2h4-----2h4------------------3------------------------|
A|-------------------0-0------0-0-------2222--2222p0--3------------------------|
D|--5-5-----5-5----------------------------------------3-----------------------|

(I can bring you everything you want)
e|-----------------------------------------------------------------------------|
B|-----------------------------------------------------------------------------|
G|-----------------------------------------------------------------------------|
D|-----2h4-----2h4------2h4----2h4----0h2-----0h2-----2h4-----2h4--------------|
A|------------------0-0-----0-0----2-2-----2-2-----0-0-----0-0-----------------|
D|-5-5-----5-5-----------------------------------------------------------------|


Chorus
e|----------------------------------------------------------------------|
B|-------------------2-2--22--------------------------------------------|
G|-4-4--44-----------2-2--22--------------------------------------------|
D|-4-4--44-5--5-5-5--2-2--22--4---4-4-4---------------------------------|
A|-2-2--22-5--5-5-5-----------1---1-1-1---------------------------------| x4
D|---------5--5-5-5-----------------------------------------------------|


Post Chorus (Listen closely to the song for the timing)
e|-----------------------------------------------------------------------------|
B|-----------------------------------------------------------------------------|
G|----------------4-2h4--6--4h6------------------------------------------------|
D|-4--2h4---4-2h4--------------------------------------------------------------|
A|-----------------------------------------------------------------------------|
D|-----------------------------------------------------------------------------|

then back to the main riff 1 time over
e|----------------------------------------------------------------------------|
B|---7-8-------7--------------------------------------------------------------|
G|---------7-9-------7-6---6-7------------------------------------------------|
D|-9-----9-------9-7-----9----------------------------------------------------| x3
A|----------------------------------------------------------------------------|
D|----------------------------------------------------------------------------|

e|-----------------------------------------------------------------------------|
B|-----------------------------------------------------------------------------|
G|-7--7-7-7-7-/11-9--9--9------------------------------------------------------|
D|-------------------------7--7/9----------------------------------------------|
A|-----------------------------------------------------------------------------|
D|-----------------------------------------------------------------------------|


First Solo (first line is all swept)
e|----------------10h14p10-----------9-12-9------------------14-19-14-------------|
B|-------------12----------12-----10--------10------------15-----------15---------|
G|---------11----------------11\9--------------9-------16-----------------16------|
D|------12---------------------------------------11-------------------------------|
A|-14-----------------------------------------------12----------------------------|
D|--------------------------------------------------------------------------------|

e|-------------------------------------19--------------------------------------|
B|-17h19p17---15h17p15--------15--19----19-17-15-------------------------------|
G|----------------------16--16--------------------16---------------------------|
D|-----------------------------------------------------------------------------|
A|-----------------------------------------------------------------------------|
D|-----------------------------------------------------------------------------|

Organ Finishes Solo and you return to the Verse, but this verse doesn’t go to a 
Pre-chorus, it goes straight into the Post chorus one time then the Chorus

Verse
e|---------------------------------------------------------------------------------|
B|---------------------------------------------------------------------------------|
G|---------------------------------------------------------------------------------|
D|---------------------------4-2---2------------2h4-----2h4-----2h4-----2h4--------|
A|-22222------------22222-------5---5-4--------------------0-0------0-0------------| x2
D|-------------------------------------------5-5-----5-5---------------------------|


Post Chorus (Listen closely to the song for the timing)
e|-----------------------------------------------------------------------------|
B|-----------------------------------------------------------------------------|
G|----------------4-2h4--6--4h6------------------------------------------------|
D|-4--2h4---4-2h4--------------------------------------------------------------|
A|-----------------------------------------------------------------------------|
D|-----------------------------------------------------------------------------|


Chorus
e|----------------------------------------------------------------------|
B|-------------------2-2--22--------------------------------------------|
G|-4-4--44-----------2-2--22--------------------------------------------|
D|-4-4--44-5--5-5-5--2-2--22--4---4-4-4---------------------------------|
A|-2-2--22-5--5-5-5-----------1---1-1-1---------------------------------| x4
D|---------5--5-5-5-----------------------------------------------------|


Bridge
e|-----------------------------------------------------------------------------|
B|-----------------------------------------------------------------------------|
G|-----------------------------------------------------------------------------|
D|-0-x-0--------------------0-x-0----------2-3-2-------------------------------|
A|-0-x-0-----------5--------0-x-0-------/5-------5-3-5-------------------------|
D|-0-x-0-----3-4-5---5-4-3--0-x-0----------------------------------------------|

(Harmony)
e|-----------------------------------------------------------------------------|
B|-----------------------------------------------------------------------------|
G|------------------------------------------0-2-0------------------------------|
D|-0-x-0--------------------0-x-0-------/3--------3-2-3------------------------|
A|-0-x-0-----------5--------0-x-0----------------------------------------------|
D|-0-x-0-----3-4-5---5-4-3--0-x-0----------------------------------------------|


Solo
e|---------------------13----------10---------10-9-----------------------------|
B|-/12-/12---12-10-12----12-10-12----------------------------------------------|
G|--------------------------------------11---------11--------------------------|
D|-----------------------------------------------------------------------------|
A|-----------------------------------------------------------------------------|
D|-----------------------------------------------------------------------------|

e|-----------------------------------------------------------------------------|
B|-11-8-7-11-8-7---------------------------------------------------------------|
G|---------------11-9-7-11-9-7--------------11---9---7-------------------------|
D|-----------------------------11-9-8-11-9-8------------9-9--------------------|
A|-----------------------------------------------------------------------------|
D|-----------------------------------------------------------------------------|

(First bend is released then bent back up)
e|-------17-----19-----21--14------------------------------------------------|
B|--17b-----17b----17b-------------------------------------------------------|
G|---------------------------------------------------------------------------|
D|---------------------------------------------------------------------------|
A|---------------------------------------------------------------------------|
D|---------------------------------------------------------------------------|

e|-17-15-14--------------------------14-17-15-14----------19-------------------|
B|----------19-17-15-17-15-14-15-17-------------19-17-15-----------------------|
G|-----------------------------------------------------------------------------|
D|-----------------------------------------------------------------------------|
A|-----------------------------------------------------------------------------|
D|-----------------------------------------------------------------------------|

e|----19--------19----------19---------------------------14----------------14-17-19|
B|-19----19-18-----18-17-------17--15--------12-10---------17-15-14-15-17----------|
G|--------------------------------------------------11-9---------------------------|
D|---------------------------------------------------------------------------------|
A|---------------------------------------------------------------------------------|
D|---------------------------------------------------------------------------------|

Hold a B Power chord over “tell me the story of the man on the run...”

“... I’m on run from the world”

Then it’s back into the main riff!

Main Riff (7/8 time signature here)
e|----------------------------------------------------------------------------|
B|---7-8-------7--------------------------------------------------------------|
G|---------7-9-------7-6---6-7------------------------------------------------|
D|-9-----9-------9-7-----9----------------------------------------------------| x3
A|----------------------------------------------------------------------------|
D|----------------------------------------------------------------------------|

e|-----------------------------------------------------------------------------|
B|-----------------------------------------------------------------------------|
G|-7--7-7-7-7-/11-9--9--9------------------------------------------------------|
D|-------------------------7--7/9----------------------------------------------|
A|-----------------------------------------------------------------------------|
D|-----------------------------------------------------------------------------|

Pre-Chorus
(I can help you lead your life)
e|-----------------------------------------------------------------------------|
B|-----------------------------------------------------------------------------|
G|-----------------------------------------------------------------------------|
D|------2h4-----2h4------2h4-----2h4------------------3------------------------|
A|-------------------0-0------0-0-------2222--2222p0--3------------------------|
D|--5-5-----5-5----------------------------------------3-----------------------|

(I can bring you everything you want)
e|-----------------------------------------------------------------------------|
B|-----------------------------------------------------------------------------|
G|-----------------------------------------------------------------------------|
D|-----2h4-----2h4------2h4----2h4----0h2-----0h2-----2h4-----2h4--------------|
A|------------------0-0-----0-0----2-2-----2-2-----0-0-----0-0-----------------|
D|-5-5-----5-5-----------------------------------------------------------------|


Chorus
e|----------------------------------------------------------------------|
B|-------------------2-2--22--------------------------------------------|
G|-4-4--44-----------2-2--22--------------------------------------------|
D|-4-4--44-5--5-5-5--2-2--22--4---4-4-4---------------------------------|
A|-2-2--22-5--5-5-5-----------1---1-1-1---------------------------------| x2
D|---------5--5-5-5-----------------------------------------------------|

Then it changes key

e|----------------------------------------------------------------------|
B|-------------------4-4--44--------------------------------------------|
G|-6-6--66-----------4-4--44--------------------------------------------|
D|-6-6--66-7--7-7-7--4-4--44--7---7-7-7---------------------------------|
A|-4-4--44-7--7-7-7-----------3---3-3-3---------------------------------| x4
D|---------7--7-7-7-----------------------------------------------------|

Then the outro is just one round of the post-chorus, in the key of C# Minor rather 
than B Minor, then slide off on a C# power chord to end the song!

Outro
e|-----------------------------------------------------------------------------|
B|-----------------------------------------------------------------------------|
G|-----------------6-4h6--8--6h8----6\-----------------------------------------|
D|-6--4h6---6-4h6--------------------------------------------------------------|
A|-----------------------------------4\----------------------------------------|
D|-----------------------------------------------------------------------------|

ENJOY!!!
Добавлено: 26.11.2013
Другие материалы по этой песне:
  • Аккорды и текст

Страница создана 26.11.2013
http://primanota.ru/misc-unsigned-bands/voyager-on-run-from-the-world-chords.htm
Привет, Гость.
Предлагаем пройти революционный курс по гитаре.
Подарок от PrimaNota.Ru, забирай!