PrimaNota.ru - самый крупный в мире бесплатный архив песенных текстов, аккордов, табулатур и нот


Misc Unsigned Bands - Y Bhekhirst - Hot In The Airport - таба

Регистрация Запомнить меня
Войти через:  Facebook Google Twitter Vk Yandex Mail.ru

Misc Unsigned Bands - Y Bhekhirst - Hot In The Airport - таба

Печатать
Просмотров: 55
-------------------------------------------------------------------------------
                             Y. Bhekhirst - Hot in The Airport
-------------------------------------------------------------------------------
Tabbed by: Archetype4

Tuning: 
Guitar is Standard
Bass is Drop D

This tab includes both the guitar and bass parts simultaneously.

There are two versions of this song floating around, one is about 5 minutes long,
 and the other is only about 3 minutes long. The longer version is the same recording, 
but it loops back to the beginning at approx 2:06 before playing through again to the ending. 

I have tabbed out the song according to the 3 minute version, but I have mentioned the 
spot where the longer version starts it's loop for those following that one.

3min version: http://www.youtube.com/watch?v=3gp1wYlldpo
5min version: http://www.youtube.com/watch?v=exTMCq0cnLs

Intro/Chorus
Guitar
e|-------------------------------------10----10-----10-----10----------------|
B|-----4~----4~------4~------4~--------10----10-----10-----10----------------|
G|---------------------------------------------------------------------------|
D|---------------------------------------------------------------------------|
A|---------------------------------------------------------------------------|
E|---------------------------------------------------------------------------|
Bass
G|---------------------------------------------------------------------------|
D|---------------------------------------------------------------------------|
A|---------------------------------------------------------------------------|
D|---1~-------1~------1~-------1~--------0----0------0------0----------------|

BASS BREAK
G|---------7-5---------------------------------------------------------------|
D|---5--7-------7--5--3--0---------------------------------------------------|
A|---------------------------------------------------------------------------|
D|---------------------------------------------------------------------------|


 Verse 1        
e|---------------------------------------------------------------------------|
B|-------------------------------------------------4---4---6-----------------|
G|-----3--3--0-(3 times)----3--3--5-(4 times)------3---3---5-----------------|
D|---------------------------------------------------------------------------|
A|---------------------------------------------------------------------------|
E|---------------------------------------------------------------------------|
Bass
G|---------------------------------------------------------------------------|
D|---------------------------------------------------------------------------|
A|----------------------------------8------------------------8---------------|
D|-----/8-8\5---(3 times)---10--10-----(4 times)---10---10-------------------|


Chorus
Guitar
e|-------------------------------------10----10-----10-----10----------------|
B|-----4~----4~------4~------4~--------10----10-----10-----10----------------|
G|---------------------------------------------------------------------------|
D|---------------------------------------------------------------------------|
A|---------------------------------------------------------------------------|
E|---------------------------------------------------------------------------|
Bass
G|---------------------------------------------------------------------------|
D|---------------------------------------------------------------------------|
A|---------------------------------------------------------------------------|
D|---1~-------1~------1~-------1~--------0----0------0------0----------------|

BASS BREAK
G|---------7-5---------------------------------------------------------------|
D|---5--7-------7--5--3--0---------------------------------------------------|
A|---------------------------------------------------------------------------|
D|---------------------------------------------------------------------------|


 Verse 2        
e|---------------------------------------------------------------------------|
B|------------------------------------------------4---4---6------------------|
G|-----3--3--0-(7 times)----3--3--5-(4 times)-----3---3---5------------------|
D|---------------------------------------------------------------------------|
A|---------------------------------------------------------------------------|
E|---------------------------------------------------------------------------|
Bass
G|---------------------------------------------------------------------------|
D|---------------------------------------------------------------------------|
A|----------------------------------8-----------------------8----------------|
D|-----/8-8\5---(7 times)---10--10----(4 times)---10---10--------------------|


Chorus
Guitar
e|-------------------------------------10----10-----10-----10----------------|
B|-----4~----4~------4~------4~--------10----10-----10-----10----------------|
G|---------------------------------------------------------------------------|
D|---------------------------------------------------------------------------|
A|---------------------------------------------------------------------------|
E|---------------------------------------------------------------------------|
Bass
G|---------------------------------------------------------------------------|
D|---------------------------------------------------------------------------|
A|---------------------------------------------------------------------------|
D|---1~-------1~------1~-------1~--------0----0------0------0----------------|

BASS BREAK
G|---------7-5---------------------------------------------------------------|
D|---5--7-------7--5--3--0---------------------------------------------------|
A|---------------------------------------------------------------------------|
D|---------------------------------------------------------------------------|



 Verse 3 (a little different)    At the (*) the 5 minute version starts over
e|---------------------------------------------------------------------------|
B|----------------------------------------------4-4-6*-------------4-4-6-----|
G|-----3--3--0-(4 times)------3-3-5---3-3-5-----3-3-5*----3-3-5----3-3-5-----|
D|---------------------------------------------------------------------------|
A|---------------------------------------------------------------------------|
E|---------------------------------------------------------------------------|
Bass
G|---------------------------------------------------------------------------|
D|----------------------------------------------------*----------------------|
A|--------------------------------8--------8---------8*--------8---------8---|
D|-----/8-8\5--(4 times)----10-10----10-10-----10-10--*--10-10-----10-10-----|


Chorus
Guitar
e|-------------------------------------10----10-----10-----10----------------|
B|-----4~----4~------4~------4~--------10----10-----10-----10----------------|
G|---------------------------------------------------------------------------|
D|---------------------------------------------------------------------------|
A|---------------------------------------------------------------------------|
E|---------------------------------------------------------------------------|
Bass
G|---------------------------------------------------------------------------|
D|---------------------------------------------------------------------------|
A|---------------------------------------------------------------------------|
D|---1~-------1~------1~-------1~--------0----0------0------0----------------|

BASS BREAK
G|---------7-5---------------------------------------------------------------|
D|---5--7-------7--5--3--0---------------------------------------------------|
A|---------------------------------------------------------------------------|
D|---------------------------------------------------------------------------|


 Verse 4 / ending   
e|---------------------------------------------------------------------------|
B|----------------------------------------------4--4--6------4---4---1-------|
G|-----3--3--0-(7 times)----3--3--5-(3 times)---3--3--5------3---3---0----3--|
D|------------------------------------------------------------------------3--|
A|---------------------------------------------------------------------------|
E|---------------------------------------------------------------------------|
Bass
G|---------------------------------------------------------------------------|
D|---------------------------------------------------------------------------|
A|--------------------------------8--------------------8------------|-----1--|
D|-----/8-8\5--(7 times)---10--10----(3 times)--10-10---------------|----(0!)|
                                                                    |
!There are two ways to play the final note on the bass.         <----
To sound like the recording, just before you hit that note, 
try and detune all the way to a low Bb. 
Alternatively, just play a Bb on the A string.

************************************

| /   slide up
| \   slide down
| h   hammer-on
| p   pull-off
| ~   vibrato
| +   harmonic
| x   Mute note
| b   Bend
| pb  Pre-bend
| br  Bend release
| pbr Pre-bend release
| brb Bend release bend

************************************
Добавлено: 02.01.2014
Другие материалы по этой песне:
  • Аккорды и текст

Страница создана 02.01.2014
http://primanota.ru/misc-unsigned-bands/y-bhekhirst-hot-in-the-airport-chords.htm
Привет, Гость.
Предлагаем пройти революционный курс по гитаре.
Подарок от PrimaNota.Ru, забирай!