PrimaNota.ru - самый крупный в мире бесплатный архив песенных текстов, аккордов, табулатур и нот


Misc Unsigned Bands - Vanilla Gloom - Lemons And Wine - таба, бас-таба

Регистрация Запомнить меня
Войти через:  Facebook Google Twitter Vk Yandex Mail.ru

Misc Unsigned Bands - Vanilla Gloom - Lemons And Wine - таба, бас-таба

Печатать
Просмотров: 66
-------------------------------------------------------------------------------------
                            LEMONS AND WINE - Vanilla Gloom
-------------------------------------------------------------------------------------
                             www.vanillagloom.bandcamp.com
                                     
                                     from 'Vexed'


Tabbed by: S D O'Neill
E-mail: N/A

Tuning: Standard

INTRO
e|----+12+------------------+7+----------------+7+----------------------------------|
B|----+12+------------------+7+----------------+7+----------------------------------|
G|----+12+------------------+7+----------------+7+----------------------------------|  x 2
D|----+12+------------------+7+----------------+7+----------------------------------| 
A|----+12+------------------+7+----------------+7+----------------------------------|
E|----+12+------------------+7+----------------+7+----------------------------------|

      x10                     x10               let this last one ring out

VERSE 1
e|----+12+------------------+7+-----------------------------------------------------|
B|----+12+------------------+7+-----------------------------------------------------|
G|----+12+------------------+7+-----------------------------------------------------| x 3
D|----+12+------------------+7+-----------------------------------------------------|
A|----+12+------------------+7+-----------------------------------------------------|
E|----+12+------------------+7+-----------------------------------------------------|

       x10                  x10

       Pack your bags..      leave them all behind
       You'll run and..      until you find
       You've lost your..    piece of mind

e|----+12+---------------------0----------------------------------------------------|
B|----+12+---------------------2----------------------------------------------------|
G|----+12+---------------------2----------------------------------------------------|
D|----+12+---------------------0----------------------------------------------------|
A|----+12+---------------------2----------------------------------------------------|
E|----+12+---------------------0----------------------------------------------------|

       Superfluous to use.. your right

CHORUS
e|-------0---------------------------0----------------------------------------------|
B|-------7---------------------------2----------------------------------------------|
G|-------7---------------------------2----------------------------------------------|
D|-------0---------------------------0----------------------------------------------|
A|-------7---------------------------2----------------------------------------------|
E|-------0---------------------------0----------------------------------------------|

         Give me your time it's not mine

e|-------0------------------------------------------------0---0---------------------|
B|-------7------------------------------------------------1---2---------------------|
G|-------7------------------------------------------------0---2---------------------|
D|-------0------------------------------------------------0---0---------------------|
A|-------7------------------------------------------------1---2---------------------|
E|-------0------------------------------------------------0---0---------------------|

         Make me over, make it over 'til you're          fi - ne

e|-------0-------------------------------------0------------------------------------|
B|-------7-------------------------------------2------------------------------------|
G|-------7-------------------------------------2------------------------------------|
D|-------0-------------------------------------0------------------------------------|
A|-------7-------------------------------------2------------------------------------|
E|-------0-------------------------------------0------------------------------------|

         Suck it all up with the lemons and the wine

e|-------0---------------------------------------0---0------------------------------|
B|-------7---------------------------------------1---2------------------------------|
G|-------7---------------------------------------0---2------------------------------|
D|-------0---------------------------------------0---0------------------------------|
A|-------7---------------------------------------1---2------------------------------|
E|-------0---------------------------------------0---0------------------------------|

         There is no us, There is no us, There is no us

VERSE 2
e|----+12+------------------+7+-----------------------------------------------------|
B|----+12+------------------+7+-----------------------------------------------------|
G|----+12+------------------+7+-----------------------------------------------------| x 3
D|----+12+------------------+7+-----------------------------------------------------|
A|----+12+------------------+7+-----------------------------------------------------|
E|----+12+------------------+7+-----------------------------------------------------|

       x10                  x10

       Leave in sight..      nowhere left to hide
       You're not the..      member of the pride
       I think it's best..   to confide

e|----+12+---------------------0----------------------------------------------------|
B|----+12+---------------------2----------------------------------------------------|
G|----+12+---------------------2----------------------------------------------------|
D|----+12+---------------------0----------------------------------------------------|
A|----+12+---------------------2----------------------------------------------------|
E|----+12+---------------------0----------------------------------------------------|

       Than drag her along..   ride

CHORUS
e|-------0---------------------------0----------------------------------------------|
B|-------7---------------------------2----------------------------------------------|
G|-------7---------------------------2----------------------------------------------|
D|-------0---------------------------0----------------------------------------------|
A|-------7---------------------------2----------------------------------------------|
E|-------0---------------------------0----------------------------------------------|

         Give me your time it's not mine

e|-------0------------------------------------------------0---0---------------------|
B|-------7------------------------------------------------1---2---------------------|
G|-------7------------------------------------------------0---2---------------------|
D|-------0------------------------------------------------0---0---------------------|
A|-------7------------------------------------------------1---2---------------------|
E|-------0------------------------------------------------0---0---------------------|

         Make me over, make it over 'til you're          fi - ne

e|-------0-------------------------------------0------------------------------------|
B|-------7-------------------------------------2------------------------------------|
G|-------7-------------------------------------2------------------------------------|
D|-------0-------------------------------------0------------------------------------|
A|-------7-------------------------------------2------------------------------------|
E|-------0-------------------------------------0------------------------------------|

         Suck it all up with the lemons and the wine

e|-------0---------------------------------------0---0------------------------------|
B|-------7---------------------------------------1---2------------------------------|
G|-------7---------------------------------------0---2------------------------------|
D|-------0---------------------------------------0---0------------------------------|
A|-------7---------------------------------------1---2------------------------------|
E|-------0---------------------------------------0---0------------------------------|

         There is no us, There is no us, There is no us

INSTRUMENTAL BREAK
e|----------------------------------------------------------------------------------|
B|--------~7~---------------------~2~-----------------------------------------------|
G|--------~7~---------------------~2~-----------------------------------------------| x 2
D|--------~0~---------------------~0~-----------------------------------------------|
A|---~7~--~7~---7--h9--7/----~2~--~2~---2--4/---------------------------------------|
E|----------------------------------------------------------------------------------|

BRIDGE
e|-------0--------0--------0--------0-----------------------------------------------|
B|-------3--------7--------1--------2-----------------------------------------------|
G|-------0--------7--------0--------2-----------------------------------------------| x 2
D|-------0--------0--------0--------0-----------------------------------------------|
A|-------3--------7--------1--------2-----------------------------------------------|
E|-------0--------0--------0--------0-----------------------------------------------|

CHORUS
e|-------0---------------------------0----------------------------------------------|
B|-------7---------------------------2----------------------------------------------|
G|-------7---------------------------2----------------------------------------------|
D|-------0---------------------------0----------------------------------------------|
A|-------7---------------------------2----------------------------------------------|
E|-------0---------------------------0----------------------------------------------|

         Give me your time it's not mine

e|-------0------------------------------------------------0---0---------------------|
B|-------7------------------------------------------------1---2---------------------|
G|-------7------------------------------------------------0---2---------------------|
D|-------0------------------------------------------------0---0---------------------|
A|-------7------------------------------------------------1---2---------------------|
E|-------0------------------------------------------------0---0---------------------|

         Make me over, make it over 'til you're          fi - ne

e|-------0-------------------------------------0------------------------------------|
B|-------7-------------------------------------2------------------------------------|
G|-------7-------------------------------------2------------------------------------|
D|-------0-------------------------------------0------------------------------------|
A|-------7-------------------------------------2------------------------------------|
E|-------0-------------------------------------0------------------------------------|

         Suck it all up with the lemons and the wine

e|-------0---------------------------------------0---0-----|----0---0-------0-------|
B|-------7---------------------------------------1---2-----|----1---2-------7-------|
G|-------7---------------------------------------0---2-----|----0---2-------7-------|
D|-------0---------------------------------------0---0-----|----0---0-------0-------|
A|-------7---------------------------------------1---2-----|----1---2-------7-------|
E|-------0---------------------------------------0---0-----|----0---0-------0-------|

         There is no us, There is no us, There is no us                    (Let ring)

************************************

| /   slide up
| \   slide down
| h   hammer-on
| p   pull-off
| ~   vibrato
| +   harmonic

************************************
Добавлено: 01.10.2013
Другие материалы по этой песне:
  • Аккорды и текст

Страница создана 01.10.2013
http://primanota.ru/misc-unsigned-bands/vanilla-gloom-lemons-and-wine-chords.htm
Привет, Гость.
Предлагаем пройти революционный курс по гитаре.
Подарок от PrimaNota.Ru, забирай!