PrimaNota.ru - самый крупный в мире бесплатный архив песенных текстов, аккордов, табулатур и нот


Misc Unsigned Bands - Vanilla Gloom - Vultures - таба, бас-таба

Регистрация Запомнить меня
Войти через:  Facebook Google Twitter Vk Yandex Mail.ru

Misc Unsigned Bands - Vanilla Gloom - Vultures - таба, бас-таба

Печатать
Просмотров: 74
Уроки эстрадного вокала в Санкт-Петербурге
-------------------------------------------------------------------------------
                             Vultures - Vanilla Gloom
-------------------------------------------------------------------------------
                           www.vanillagloom.bandcamp.com

                                  from 'Vexed'

Tabbed by: S D O'Neill
E-mail: N/A

Tuning: Standard


Intro

e|--0-0-0/---0-0-0/---0-00-000-----------------------------------------------|
B|--0-0-0/---0-0-0/---0-00-000-----------------------------------------------|
G|--4-4-0/---2-2-0/---1-11-111-----------------------------------------------| x 4
D|--5-5-5/---3-3-3/---2-22-222-----------------------------------------------|
A|--5-5-5/---3-3-3/---2-22-222-----------------------------------------------|
E|--0-0-0/---0-0-0/---0-00-000-----------------------------------------------|

e|--0-0-0/---0-0-0/---0-00-000-----------------------------------------------|
B|--0-0-0/---0-0-0/---0-00-000-----------------------------------------------|
G|--4-4-0/---2-2-0/---1-11-111-----------------------------------------------| x 4
D|--5-5-5/---3-3-3/---2-22-222-----------------------------------------------|
A|--5-5-5/---3-3-3/---2-22-222-----------------------------------------------|
E|--0-0-0/---0-0-0/---0-00-000-----------------------------------------------|

    1.Vultures in the trees
    2.I'm living but they're looking at me
    3.My skin is so deep
    4.They couldn't get through to me
    

Chorus

e|------------------------------0-0-000-0------------------------------------|
B|------------------------------0-0-000-0------------------------------------|
G|--0-0-000-00--0-3333333-0-----1-1-111-1-0--0-0000000-0---------------------| x 2 
D|--1-1-111-11--2-2222222-0-----2-2-222-2-0--4-4444444-0---------------------|
A|--2-2-222-22--3-3333333-0-----2-2-222-2-0--5-5555555-0---------------------|
E|--2-2-222-22--3-3333333-0-----0-0-000-0-0--5-5555555-0---------------------|
          
            Go away    I ain't  here to      stay
         Leave me alone  Better off on my    own  


Verse 2

e|--0-0-0/---0-0-0/---0-00-000-----------------------------------------------|
B|--0-0-0/---0-0-0/---0-00-000-----------------------------------------------|
G|--4-4-0/---2-2-0/---1-11-111-----------------------------------------------| x 2
D|--5-5-5/---3-3-3/---2-22-222-----------------------------------------------|
A|--5-5-5/---3-3-3/---2-22-222-----------------------------------------------|
E|--0-0-0/---0-0-0/---0-00-000-----------------------------------------------|

e|--0-0-0/---0-0-0/---0-00-000-----------------------------------------------|
B|--0-0-0/---0-0-0/---0-00-000-----------------------------------------------|
G|--4-4-0/---2-2-0/---1-11-111-----------------------------------------------| x 4
D|--5-5-5/---3-3-3/---2-22-222-----------------------------------------------|
A|--5-5-5/---3-3-3/---2-22-222-----------------------------------------------|
E|--0-0-0/---0-0-0/---0-00-000-----------------------------------------------|

    1.Follow me back home
    2.With eyes as cold as stone
    3.Pick out my bones
    4.If you wanna hear me moan


Chorus 2

e|------------------------------0-0-000-0------------------------------------|
B|------------------------------0-0-000-0------------------------------------|
G|--0-0-000-00--0-3333333-0-----1-1-111-1-0--0-0000000-0---------------------| x 4 
D|--1-1-111-11--2-2222222-0-----2-2-222-2-0--4-4444444-0---------------------|
A|--2-2-222-22--3-3333333-0-----2-2-222-2-0--5-5555555-0---------------------|
E|--2-2-222-22--3-3333333-0-----0-0-000-0-0--5-5555555-0---------------------|
          
            Go away    I ain't  here to      stay
         Leave me alone  Better off on my    own  
            Go away    I ain't  here to      stay
         Leave me alone  Better off on my    own


Bridge

e|---------------------------------------0-0000000---------------------------|
B|---------------------------------------0-0000000---------------------------|
G|--1-1-1111-0--0-000000-0/--------------2-2222222-0/------------------------|
D|--2-2-2222-0--2-222222-0/--4-4-4444-0--3-3333333-3/------------------------|
A|--2-2-2222-0--3-333333-3/--5-5-5555-0--3-3333333-3/------------------------|
E|--------------3-333333-3/--5-5-5555-0--------------------------------------|

e|---------------------------------------0-0000000---------------------------|
B|---------------------------------------0-0000000---------------------------|
G|--1-1-1111-0--0-000000-0/--------------2-2222222-0/------------------------| x 4
D|--2-2-2222-0--2-222222-0/--4-4-4444-0--3-3333333-3/------------------------|
A|--2-2-2222-0--3-333333-3/--5-5-5555-0--3-3333333-3/------------------------|
E|--------------3-333333-3/--5-5-5555-0--------------------------------------|

    1.Maybe it's alright  come out
    2.Maybe it's alr/  spit it out   
    3.Baby it's alright    get out 
    4.Maybe it's alright   without

Outro / Solo

e|------------------------------0-0-000-0/0----------------------------------|
B|------------------------------0-0-000-0/0----------------------------------|
G|--0-0-000-00--0-3333333-0-----1-1-111-1/4---0-00000/-0/-0/-0---------------| x 3 
D|--1-1-111-11--2-2222222-0-----2-2-222-2/5---4-44444/-3/-2/-1---------------|
A|--2-2-222-22--3-3333333-0-----2-2-222-2/5---5-55555/-4/-3/-2---------------|
E|--2-2-222-22--3-3333333-0-----0-0-000-0/0---5-55555/-4/-3/-2---------------|


e|------------------------------0-0-000-0/0----------------------------------|
B|------------------------------0-0-000-0/0----------------------------------|
G|--0-0-000-00--0-3333333-0-----1-1-111-1/4---0-0000000----------------------| 
D|--1-1-111-11--2-2222222-0-----2-2-222-2/5---4-4444444----------------------|
A|--2-2-222-22--3-3333333-0-----2-2-222-2/5---5-5555555----------------------|
E|--2-2-222-22--3-3333333-0-----0-0-000-0/0---5-5555555----------------------|

e|---------------------------------------------------------------------------|
B|--~12~--~12~--12-12--b12--12-12-12-12-12-12-12-12/-------------------------|
G|---------------------------------------------------------------------------|
D|---------------------------------------------------------------------------|
A|---------------------------------------------------------------------------|
E|---------------------------------------------------------------------------|

e|---------------------------------------------------------------------------|
B|--~17~--~17~--17-17--b17-17-17-17-17-17-17-17--17p15/-12--15--12-----------|
G|------------------------------------------------------------------14--12---|
D|---------------------------------------------------------------------------|
A|---------------------------------------------------------------------------|
E|---------------------------------------------------------------------------|

e|---------------------------------------------------------------------------|
B|---------------------------12--12--12-12-----------------------------------|
G|--14--b14--12--------------12--12--12-12------------12----------12---------|
D|---------------~14~--12-14---------------~14~-12h14----14-12h14----~14~--12|
A|---------------------------------------------------------------------------|
E|---------------------------------------------------------------------------|

e|---------------------------------------------------------------------------|
B|--12-12-14-12-b14---------------------14--14--14-b14-~12~------------------|
G|--12-12-14-12-b14-12------------------14--14--14-b14-~12~------------------|
D|---------------------14-12-~14~--~12~--------------------------------------|
A|---------------------------------------------------------------------------|
E|---------------------------------------------------------------------------|

e|---------------------------------------------------------------------------|
B|--14--14--14-b14-~12~----14--14--14-b14-~12~----12-~12~---12-~12~---12-~12~|
G|--14--14--14-b14-~12~----14--14--14-b14-~12~---b12-~12~--b12-~12~--b12-~12~|
D|---------------------------------------------------------------------------|
A|---------------------------------------------------------------------------|
E|---------------------------------------------------------------------------|


************************************

| /   slide up
| \   slide down
| h   hammer-on
| p   pull-off
| ~   vibrato
| b   Bend

************************************
Добавлено: 10.10.2013
Другие материалы по этой песне:
  • Аккорды и текст

Страница создана 07.09.2013
http://primanota.ru/misc-unsigned-bands/vanilla-gloom-vultures-chords.htm
Привет, Гость.
Предлагаем пройти революционный курс по гитаре.
Подарок от PrimaNota.Ru, забирай!