PrimaNota.ru - самый крупный в мире бесплатный архив песенных текстов, аккордов, табулатур и нот


Misc Unsigned Bands - Underdog - Back To Back - таба

Регистрация Запомнить меня
Войти через:  Facebook Google Twitter Vk Yandex Mail.ru

Misc Unsigned Bands - Underdog - Back To Back - таба

Печатать
Просмотров: 54
Heyy
This is my first tab i have done so its not great, this song has no
other tabs so i thought i'd contribute my version, althought its 
only one small riff in the song. I would much appreciate help 
and contrbutions. Contact me at fail_to_reason@yahoo.com  
Thanks in advance.

e|----------------10--101010---7777-----------------------|
B|--7777---9-10---12--121212---9999--10-9---7--777--------|
G|--9999---11-12---------------------12-11--9--999--------|
D|--------------------------------------------------------|
A|--------------------------------------------------------|
E|--------------------------------------------------------|

e|----------------10--101010---7777-----------------------|
B|--7777---9-10---12--121212---9999--10-9---7
Добавлено: 06.02.2014
Другие материалы по этой песне:
  • Аккорды и текст

Страница создана 06.02.2014
http://primanota.ru/misc-unsigned-bands/underdog-back-to-back-chords.htm
Привет, Гость.
Предлагаем пройти революционный курс по гитаре.
Подарок от PrimaNota.Ru, забирай!