PrimaNota.ru - самый крупный в мире бесплатный архив песенных текстов, аккордов, табулатур и нот


Misc Unsigned Bands - Ungfila - All Because Of You - таба

Регистрация Запомнить меня
Войти через:  Facebook Google Twitter Vk Yandex Mail.ru

Misc Unsigned Bands - Ungfila - All Because Of You - таба

Печатать
Просмотров: 46
Song: All Because of You
Artist: Ungfila
Album: Highest of the high
Year: 2006
www.Ungfila.no
 --------------------------------------
| All Because of you |
 --------------------------------------

Elecric guitar
Intro/verse: 
e|-----------------------|      play the Intro 8 times    
H|-----------------------|      
G|-----------------------|      
D|-----------------------| 
A|----7-6-7-----2-0-2----|
E|-0-0-------9-7---------| 

Pre-Chorus:
Sing, Sing Sing....
e|-------------------------------|
H|---------------13-12-11-12-11b-|
G|-------------------------------|
D|-------------------------------|
A|-------------------------------|
E|-------------------------------|

Chorus:
Distorted
  D      A      F#                 G
e|----------------------------------------------------|
H|----------------------------------------------------|
G|-7777---------11-11-11-11-11-11--12-12-12-12-12-12--|
D|-7777--777777-11-11-11-11-11-11--12-12-12-12-12-12--|
A|-5555--777777
Добавлено: 15.11.2013
Другие материалы по этой песне:
  • Аккорды и текст

Страница создана 15.11.2013
http://primanota.ru/misc-unsigned-bands/ungfila-all-because-of-you-chords.htm
Привет, Гость.
Предлагаем пройти революционный курс по гитаре.
Подарок от PrimaNota.Ru, забирай!