PrimaNota.ru - самый крупный в мире бесплатный архив песенных текстов, аккордов, табулатур и нот


Misc Unsigned Bands - Trond Vold - Canon Rock - таба

Регистрация Запомнить меня
Войти через:  Facebook Google Twitter Vk Yandex Mail.ru

Misc Unsigned Bands - Trond Vold - Canon Rock - таба

Печатать
Просмотров: 33
Artist: Trond Vold
Song: Canon Rock (Cover)

It is NOT my tab, it's Trond Vold's
Check out the whole lesson here: http://www.guitarmasterclass.net/solo-guitar/canon-rock-lesson/
Backing track can be downloaded from the same link.

Part one:
------------------------|------------------------|------------------------|
--17b--------15b--------|--14b--------12b--------|--10b--------10~--------|
------------------------|------------------------|------------------------|
------------------------|------------------------|------------------------|
------------------------|------------------------|------------------------|
------------------------|------------------------|------------------------|

                               3                      |---3---|      
---------------------------|---------------------15--14h-15p-14-----|
--10b--------14----15--17--|--17b------------17-----------------17--|
---------------------------|----------------------------------------|
---------------------------|----------------------------------------|
---------------------------|----------------------------------------|
---------------------------|----------------------------------------|

                                     |---3---|                  |---3---|      
-----------------14--17--19--|--15--14h-15p-14-----15--14---------------------|
--14b--------14--------------|-----------------17----------17--15h-17p-15-----|
-----------------------------|--------------------------------------------14--|
-----------------------------|------------------------------------------------|
-----------------------------|------------------------------------------------|
-----------------------------|------------------------------------------------|

       |---3---|                                                          
-------------------------------------------------------------------------|
---------------------15--14-15-14-15-14-15-14-15-14-15-14-15-14-15-14-15-|
--16--14h-16p-14-12------------------------------------------------------|
-------------------------------------------------------------------------|
-------------------------------------------------------------------------|
-------------------------------------------------------------------------|

Part Two:
       PM PM   PH     PM PM         PM PM   PH     PM PM  
----------------------------|----------------------------|
-------------<>8s--7--------|-------------<>5h--7--------|
--7-------------------------|----------------------------|
--7-------------------------|--7-------------------------|
--5----5--5-----------5--5--|--7-------------------------|
----------------------------|--5----5--5-----------5--5--|

       PM PM    PM    PM         PM PM PM PM PM PM         PM PM PM           
-------------------------|-------------------------|-------------------------|
-------------2-----3-----|-------------------------|-------------------------|
--4----------------------|-------------------------|----------------4s----6--|
--4----------------------|-------------------------|--5-------------5s----7--|
--2----2--2-----2-----2--|--4----4--4--2--2--4--2--|--5----------------------|
-------------------------|--2----2--2--0--0--2--0--|--3----3--3--3-----------|

       PM PM   PH                    PM PM   PH             
-----------------------------|-----------------------------|
-------------<>8s--7p--5-----|-----------------------------|
--7-----------------------7--|-------------<>4s--6--7p--6--|
--7--------------------------|--5--------------------------|
--5----5--5------------------|--5--------------------------|
-----------------------------|--3----3--3------------------|

       PM PM   PH                     PM PM   PH     PM PM  
------------------------------|----------------------------|
------------------------------|-------------<>8s--7--------|
-------------<>6s--7s--9s--7--|--7-------------------------|
--7---------------------------|--7-------------------------|
--7---------------------------|--5----5--5-----------5--5--|
--5----5--5-------------------|----------------------------|

       PM PM   PH     PM PM         PM PM    PM    PM  
----------------------------|-------------------------|
-------------<>5h--7--------|-------------2-----3-----|
----------------------------|--4----------------------|
--7-------------------------|--4----------------------|
--7-------------------------|--2----2--2-----2-----2--|
--5----5--5-----------5--5--|-------------------------|

       PM PM PM PM PM PM         PM PM PM           
-------------------------|-------------------------|
-------------------------|-------------------------|
-------------------------|----------------4s----6--|
-------------------------|--5-------------5s----7--|
--4----4--4--2--2--4--2--|--5----------------------|
--2----2--2--0--0--2--0--|--3----3--3--3-----------|

       PM PM   PH                    PM PM   PH             
-----------------------------|-----------------------------|
-------------<>8s--7p--5-----|-----------------------------|
--7-----------------------7--|-------------<>4s--6--7p--6--|
--7--------------------------|--5--------------------------|
--5----5--5------------------|--5--------------------------|
-----------------------------|--3----3--3------------------|

       PM PM   PH         
-------------------------|
-------------------------|
-------------<>6~--------|
--7----------------------|
--7----------------------|
--5----5--5--------------|

Part Three:
---------------------|---------------------|
--19~----------------|--17\----------------|
---------------------|---------------------|
---------------------|---------------------|
---------------------|---------------------|
---------------------|---------------------|

                                             PM  PM  
-------------------------|---------------------------|
--15~--------L--14b------|--14~----------------------|
-------------------------|-------------14------------|
-------------------------|-------------------12--12--|
-------------------------|---------------------------|
-------------------------|---------------------------|


-------------------------------|--------------------------|
-------------------------------|---------15---------------|
--16~---------L--16p--14s--12--|--14~----------11~--------|
-------------------------------|--------------------------|
-------------------------------|--------------------------|
-------------------------------|--------------------------|


--------------------------|-------------------------|--------------------------|
--------------------------|--14~--------15----17----|--19~------19----19b------|
--14b--------14b------12--|-------------------------|--------------------------|
--------------------------|-------------------------|--------------------------|
--------------------------|-------------------------|--------------------------|
--------------------------|-------------------------|--------------------------|


---------------------|-------------------------|--------14----17~--------|
--17\----------------|--15~--------L--15b------|--14---------------------|
---------------------|-------------------------|-------------------------|
---------------------|-------------------------|-------------------------|
---------------------|-------------------------|-------------------------|
---------------------|-------------------------|-------------------------|


--19g19----17----15----17b----|--L----15----14----17s----|
------------------------------|--------------------------|
------------------------------|--------------------------|
------------------------------|--------------------------|
------------------------------|--------------------------|
------------------------------|--------------------------|


--19----17----15----19----|--19b----------------|
--------------------------|---------------------|
--------------------------|---------------------|
--------------------------|---------------------|
--------------------------|---------------------|
--------------------------|---------------------|

Part Four:
----------------------|----------------------|
----------------------|----------------------|
--7----6----7---------|------------4----6----|
-----------------4----|--7~------------------|
----------------------|----------------------|
----------------------|----------------------|

                              PM PM                                       
-----------------------|----------------------|
------------------7----|--10b~----------------|
--7----6--6--7---------|----------------------|
-----------------------|----------------------|
-----------------------|----------------------|
-----------------------|----------------------|

       |---3---|                                      
----------------------------|------------------------|
--8----7h--8p--7-------8----|--7---------------------|
------------------9---------|-----9--7---------------|
----------------------------|-----------9--7~--------|
----------------------------|------------------------|
----------------------------|------------------------|

       |---3---|                                     PH       
-----------------------------|-----------------------------|
-----------------------------|-----------------------------|
------------------------7----|--6--------------------------|
--9----7h--9p--7-------------|-------7---------------------|
------------------10---------|----------7s--5p--4----------|
-----------------------------|---------------------<>5~----|


----------------------|----------------------|--------7--10s--14p--10----------|
----------------------|----------------------|-----7-------------------12------|
--7----6----7---------|------------4----6----|--7--------------------------11--|
-----------------4----|--7~------------------|---------------------------------|
----------------------|----------------------|---------------------------------|
----------------------|----------------------|---------------------------------|

                              |---3---|                                       
----------------------|----------------------------|-------------10----14----|
--10b~----------------|--8----7h--8p--7-------8----|--7----12----------------|
----------------------|------------------9---------|-------------------------|
----------------------|----------------------------|-------------------------|
----------------------|----------------------------|-------------------------|
----------------------|----------------------------|-------------------------|


--15--14--12----------------------|--------------------------------|
--------------15--14--12----------|--------------------------------|
--------------------------14--12--|--18--16--14--------------------|
----------------------------------|--------------17--16--14s--7----|
----------------------------------|--------------------------------|
----------------------------------|--------------------------------|

   |---3--|   |---3---|   |---3---|           |---3---|   |----3----|    
-----------------9h--12--12p--9-----------|----------------------------17---------|
-------------10------------------10-------|--------------14h--15s--16-------------|
----------9--------------------------9----|----------14---------------------------|
------11----------------------------------|------14-------------------------------|
--12--------------------------------------|--16-----------------------------------|
------------------------------------------|---------------------------------------|

Part Five:
----------------------|----------------------|
----------------------|----------------------|
--7----6----7---------|------------4----6----|
-----------------4----|--7~------------------|
----------------------|----------------------|
----------------------|----------------------|

                              PM PM                                       
-----------------------|----------------------|
------------------7----|--10b~----------------|
--7----6--6--7---------|----------------------|
-----------------------|----------------------|
-----------------------|----------------------|
-----------------------|----------------------|

       |---3---|                                      
----------------------------|------------------------|
--8----7h--8p--7-------8----|--7---------------------|
------------------9---------|-----9--7---------------|
----------------------------|-----------9--7~--------|
----------------------------|------------------------|
----------------------------|------------------------|

       |---3---|                                     PH       
-----------------------------|-----------------------------|
-----------------------------|-----------------------------|
------------------------7----|--6--------------------------|
--9----7h--9p--7-------------|-------7---------------------|
------------------10---------|----------7s--5p--4----------|
-----------------------------|---------------------<>5~----|


----------------------|----------------------|--------7--10s--14p--10----------|
----------------------|----------------------|-----7-------------------12------|
--7----6----7---------|------------4----6----|--7--------------------------11--|
-----------------4----|--7~------------------|---------------------------------|
----------------------|----------------------|---------------------------------|
----------------------|----------------------|---------------------------------|

                              |---3---|                                       
----------------------|----------------------------|-------------10----14----|
--10b~----------------|--8----7h--8p--7-------8----|--7----12----------------|
----------------------|------------------9---------|-------------------------|
----------------------|----------------------------|-------------------------|
----------------------|----------------------------|-------------------------|
----------------------|----------------------------|-------------------------|


--15--14--12----------------------|--------------------------------|
--------------15--14--12----------|--------------------------------|
--------------------------14--12--|--18--16--14--------------------|
----------------------------------|--------------17--16--14s--7----|
----------------------------------|--------------------------------|
----------------------------------|--------------------------------|

   |---3--|   |---3---|   |---3---|           |---3---|   |----3----|    
-----------------9h--12--12p--9-----------|----------------------------17---------|
-------------10------------------10-------|--------------14h--15s--16-------------|
----------9--------------------------9----|----------14---------------------------|
------11----------------------------------|------14-------------------------------|
--12--------------------------------------|--16-----------------------------------|
------------------------------------------|---------------------------------------|

Part Six:
   |---3---|   |---3---|   |---3---|   |---3---|                          
--------------------------------------------------|----------------------|
--------------------------------------14--15--17--|--17b~----------------|
--------------14--16--18--14--16--18--------------|----------------------|
--14--16--17--------------------------------------|----------------------|
--------------------------------------------------|----------------------|
--------------------------------------------------|----------------------|

                                                                     PM  PM  
-----------------------|------------------------|---------------------------|
--17pb~----------------|--15~--------15b--------|--14~----------------------|
-----------------------|------------------------|-------------14------------|
-----------------------|------------------------|-------------------12--12--|
-----------------------|------------------------|---------------------------|
-----------------------|------------------------|---------------------------|

       
-----------------------------|-------------------------|
-----------------------------|--------15---------------|
--16--------L--16p--14p--12--|--14----------11~--------|
-----------------------------|-------------------------|
-----------------------------|-------------------------|
-----------------------------|-------------------------|

 
--------------------------------------------------|
--------------12-12-12-12-14-14-14-14-15-15-15-15-|
--12-12-12-12-------------------------------------|
--------------------------------------------------|
--------------------------------------------------|
--------------------------------------------------|
    
                                       |-----5-----|                           
-----------14-15-17-15-14----------------------------|------------------------|
--14-15-17----------------17-15-14----------14-15-17-|--17b------------20b----|
-----------------------------------16-14-16----------|------------------------|
-----------------------------------------------------|------------------------|
-----------------------------------------------------|------------------------|
-----------------------------------------------------|------------------------|

        
-------------------------|---------------------------|--------14----17~--------|
--17pbr~-----------------|--15~-----------15pbr------|--14---------------------|
-------------------------|---------------------------|-------------------------|
-------------------------|---------------------------|-------------------------|
-------------------------|---------------------------|-------------------------|
-------------------------|---------------------------|-------------------------|

    
--19~----17----15----19----|--17~----21----21b~--------|
---------------------------|---------------------------|
---------------------------|---------------------------|
---------------------------|---------------------------|
---------------------------|---------------------------|
---------------------------|---------------------------|

   |---3---|   |---3---|   |---3---|   |---3---|   
--19--15--------------15--19--15--------------15--|
----------15------15--------------15------15------|
--------------16----------------------16----------|
--------------------------------------------------|
--------------------------------------------------|
--------------------------------------------------|

   |---3---|   |---3---|              
--21--17--------------17--21~--------|
----------17------17-----------------|
--------------18---------------------|
-------------------------------------|
-------------------------------------|
-------------------------------------|

Part Seven:
    PM    PM    PM                       
---------------------------|
---------------------------|
--7-----6-----7------------|
-----0-----0-----0--4h--5--|
---------------------------|
---------------------------|

                                     PM    PM    PM    PM  
-------------------------------|--------------------------|
-------------------------------|--3--0--2--0--3--0--7--0--|
------------------------6S--2--|--------------------------|
--7S--9p--7------7h--9---------|--------------------------|
-------------10----------------|--------------------------|
-------------------------------|--------------------------|

           PM                                             
---------------------------|-----------------------------|
--10~---------------7--10--|--12--0--10--0--8--0--12--0--|
-----------6--7--9---------|-----------------------------|
---------------------------|-----------------------------|
---------------------------|-----------------------------|
---------------------------|-----------------------------|

         |---3---|              
--------------------10---------|
--10------------10-------------|
------------11-----------------|
--------12---------------------|
-------------------------------|
-------------------------------|

   T           T      T           T      T          
--15p-12p-10---------------------------------------|
--------------15p-12-15p-12p-10--------------------|
---------------------------------16p-11-16p-11p-9--|
---------------------------------------------------|
---------------------------------------------------|
---------------------------------------------------|

   T         T     T         T     T              PM    PM    PM         
--------------------------------------------|---------------------------|
--------------------------------------------|---------------------------|
--14p-9p-7----------------------------------|--7-----6-----7------------|
------------14p-9-14p-9p-7--12p-9-12p-9p-7--|-----0-----0-----0--4h--5--|
--------------------------------------------|---------------------------|
--------------------------------------------|---------------------------|

                                     PM    PM    PM    PM  
-------------------------------|--------------------------|
-------------------------------|--3--0--2--0--3--0--7--0--|
------------------------6S--2--|--------------------------|
--7S--9p--7------7h--9---------|--------------------------|
-------------10----------------|--------------------------|
-------------------------------|--------------------------|


-----------------------|-----------------------------|
--<>10b----------------|--12--0--10--0--8--0--12--0--|
-----------------------|-----------------------------|
-----------------------|-----------------------------|
-----------------------|-----------------------------|
-----------------------|-----------------------------|

    
---------12----10----9----|
--10~---------------------|
--------------------------|
--------------------------|
--------------------------|
--------------------------|

   |----3---|   |----3----|   |----3---|   |----3----|   
--12p--10------10h--12p--10--14p--10------10h--12p--10--|
-----------12-------------------------12----------------|
--------------------------------------------------------|
--------------------------------------------------------|
--------------------------------------------------------|
--------------------------------------------------------|

   |----3---|   |----3----|                                             
--15p--12------12h--15p--12--15b--------|
-----------14---------------------------|
----------------------------------------|
----------------------------------------|
----------------------------------------|
----------------------------------------|

Part Eight:
--------------------|-------------------|--------------------|
--------------------|-------------------|--------------------|
--------------------|-------------------|--------------------|
--7~----------------|--L----------------|--7--------9--------|
--------------------|-------------------|--------------------|
--------------------|-------------------|--------------------|

                
-----------------------|--------------------|-------------------|
-----------------------|--------------------|-------------------|
-----------------------|--------------------|-------------------|
--7------9p-7-5--------|--4~----------------|--L----------------|
-----------------------|--------------------|-------------------|
-----------------------|--------------------|-------------------|

   
--------------------|-----------------------|--------------------|
--7--------8--------|--7------8p-7----------|--------------------|
--------------------|--------------9--------|--7--------6--------|
--------------------|-----------------------|--------------------|
--------------------|-----------------------|--------------------|
--------------------|-----------------------|--------------------|

                         PH                                      
--------------------|-----------------------|-------------------|
--------------------|-----------------------|-------------------|
-----------6--------|--<>6b~----------------|--L----------------|
--9-----------------|-----------------------|-------------------|
--------------------|-----------------------|-------------------|
--------------------|-----------------------|-------------------|

                                              PH                  
--------------------|--------------------|-----------------------|
--------------------|--------------------|-----------------------|
--7--------6--------|-----------5--------|--<>5b~----------------|
--------------------|--9-----------------|-----------------------|
--------------------|--------------------|-----------------------|
--------------------|--------------------|-----------------------|

Part Nine:
           PM          PM             PM    PM    PM     PM  
---------------------------|--------------------------------|---------------------------|
---------------------------|--------------------------------|---------------------------|
--7-----6-----7-----11-----|--11S--14-----12S--11-----9-----|--7-----6-----7-----11-----|
-----0-----0-----0------0--|-----------0-----------0-----0--|-----0-----0-----0------0--|
---------------------------|--------------------------------|---------------------------|
---------------------------|--------------------------------|---------------------------|

           PM                     |---3---|   |---3--|  |---3--|  |--3--|   
------------------------------|--------------------------------------------|
------------------------------|---12--12--10--8--7--10--8--7--8--7---------|
--11S--14-----16S--14~--------|--------------------------------------9--7--|
-----------0------------------|--------------------------------------------|
------------------------------|--------------------------------------------|
------------------------------|--------------------------------------------|

 |---3--|   |---3--|  |---3--|  |--3--|   
----------------------------------------|
--10--10--8--7--8--7--------------------|
----------------------9--7--6-----------|
-------------------------------9--7--5--|
----------------------------------------|
-------------------------------------------|

  |--3--|  |--3--|  |--3--|  |--3--|     |--3--|  |--3--|             
--------------------------------------|-----------5--7--9--9~--------|
-----------------------------5--7--8--|--5--7--8---------------------|
-----------4--6--7--4--6--7-----------|------------------------------|
--4--5--7-----------------------------|------------------------------|
--------------------------------------|------------------------------|
--------------------------------------|------------------------------|

   |---3---|   |---3---|   |---3---|   |---3---|   
--14--10--------------10--14--10------14--10------|
----------10------10--------------10----------10--|
--------------11----------------------------------|
--------------------------------------------------|
--------------------------------------------------|
--------------------------------------------------|

   |---3--|  |---3--|   |---3--|   |---3--|   
--12--9-------------9--12--9------12--9------|
---------10-----10------------10---------10--|
-------------9-------------------------------|
---------------------------------------------|
---------------------------------------------|
---------------------------------------------|

   |--3--|  |--3--|   |--3--|   |--3--|   
--10--7-----------7--10--7-----10--7-----|
---------7-----7------------7---------7--|
------------7----------------------------|
-----------------------------------------|
-----------------------------------------|
-----------------------------------------|

  |--3--|  |--3--|  |--3--|  |--3--|     |--3--|  |--3--|  |--3--|  |--3--|   
--5--2-----------2--5--2-----5--2-----|--7--3-----------3--7--3-----7--3-----|
--------2-----2-----------2--------2--|--------3-----3-----------3--------3--|
-----------2--------------------------|-----------4--------------------------|
--------------------------------------|--------------------------------------|
--------------------------------------|--------------------------------------|
--------------------------------------|--------------------------------------|

   |---3---|   |---3---|   |---3---|   |---3---|   
--14--10--------------10--14--10------14--10------|
----------10------10--------------10----------10--|
--------------11----------------------------------|
--------------------------------------------------|
--------------------------------------------------|
--------------------------------------------------|

   |---3---|   |---3---|   |---3---|   |---3---|                         
--15--10--------------10--15--10------15--10------|--17~----------------|
----------10------10--------------10----------10--|---------------------|
--------------12----------------------------------|---------------------|
--------------------------------------------------|---------------------|
--------------------------------------------------|---------------------|
--------------------------------------------------|---------------------|

Part Ten:
--17~----13--15--17~----13--15--|--17----------------------13--15--|
--------------------------------|--------------14--15--17----------|
--------------------------------|------14--15----------------------|
--------------------------------|----------------------------------|
--------------------------------|----------------------------------|
--------------------------------|----------------------------------|

 
--13~------------13~------------|----------------------------------|
---------15--17-----------------|----------------------15--14--15--|
--------------------------------|--14--15--14------14--------------|
------------------------15--17--|--------------17------------------|
--------------------------------|----------------------------------|
--------------------------------|----------------------------------|

 
--------------------------------|----------------------------------|
--11~----15--13--11~------------|----------------------11--14--15--|
------------------------14--12--|--14--12--10--12--14--------------|
--------------------------------|----------------------------------|
--------------------------------|----------------------------------|
--------------------------------|----------------------------------|


------------------------12--13--|----------------------13--15--17--|
--11~----15--14--15~------------|----------14--15--17--------------|
--------------------------------|--14--15--------------------------|
--------------------------------|----------------------------------|
--------------------------------|----------------------------------|
--------------------------------|----------------------------------|


--13~------------13~------------|---------------------------------|
---------15--17---------17--15--|--17--14--15--17--17b----15--14--|
--------------------------------|---------------------------------|
--------------------------------|---------------------------------|
--------------------------------|---------------------------------|
--------------------------------|---------------------------------|

  
--------------------------------|----------------------------------|
--15~--------14--15~------------|----------------------15--14--15--|
---------15---------------------|--14--15--14------14--------------|
------------------------15--17--|--------------17------------------|
--------------------------------|----------------------------------|
--------------------------------|----------------------------------|

 
--------------------------------|----------------------------------|
--11~----15--13--11~------------|----------------------11--14--15--|
------------------------14--12--|--14--12--10--12--14--------------|
--------------------------------|----------------------------------|
--------------------------------|----------------------------------|
--------------------------------|----------------------------------|

                         |---3---|      |---3---|   |---3---|   |---3---|   |---3---|   
------------------------------------|--------------------------------------14--15--17--|
--11~----15--14--15~----------------|--------------------------14--15--17--------------|
------------------------------------|--------------12--14--16--------------------------|
------------------------------------|--12--14--16--------------------------------------|
------------------------12--14--16--|--------------------------------------------------|
------------------------------------|--------------------------------------------------|

Part Elleven:
--17----------------------14--15--|--14------------14----15--17--|
--------------14--15--17----------|--------15--17----------------|
------14--16----------------------|------------------------------|
----------------------------------|------------------------------|
----------------------------------|------------------------------|
----------------------------------|------------------------------|


--17b------------19--21--|--21b------------21--19--|--17------14~--------L--|
-------------------------|-------------------------|------------------------|
-------------------------|-------------------------|------------------------|
-------------------------|-------------------------|------------------------|
-------------------------|-------------------------|------------------------|
-------------------------|-------------------------|------------------------|

   |----3----|    |----3---|    |---3---|   |---3---|    
--14p--12p--10h--12p--10p--9h--10p--9p--7h--9p--7p--5h--|
--------------------------------------------------------|
--------------------------------------------------------|
--------------------------------------------------------|
--------------------------------------------------------|
--------------------------------------------------------|

  |---3---|   |---3---|                                            
--7p--5p--3h--5p--3p--2p--0--------|--14------------14--------14--|
-----------------------------------|--------15--17--------15------|
-----------------------------------|------------------------------|
-----------------------------------|------------------------------|
-----------------------------------|------------------------------|
-----------------------------------|------------------------------|

   |---3---|   |---3---|   |---3---|   |---3---|                                
--18--18--18--18--15--14--18--18--18--18--14--18--|--19~------19~------19--17--|
--------------------------------------------------|----------------------------|
--------------------------------------------------|----------------------------|
--------------------------------------------------|----------------------------|
--------------------------------------------------|----------------------------|
--------------------------------------------------|----------------------------|


--19~------17------------------|--17b--------L--17pb----15--|
---------------19--18--17--15--|----------------------------|
-------------------------------|----------------------------|
-------------------------------|----------------------------|
-------------------------------|----------------------------|
-------------------------------|----------------------------|

                              |----3---|   |----3---|   |----3---|   |---3---|   
--14----15----------------|--12p--10------10------------------------------------|
------------15~--------L--|-----------12------12p--10--12p--10------10----------|
--------------------------|-------------------------------------11------11p--9--|
--------------------------|-----------------------------------------------------|
--------------------------|-----------------------------------------------------|
--------------------------|-----------------------------------------------------|

   |---3---|  |---3---|                                      
-----------------------------------|
-----------------------------------|
--11p--9------9--------------------|
----------11-----11p--9s--7--------|
-----------------------------------|
-----------------------------------|

Part Twelve:
   |---3---|  |---3---|                                      
------------------17----|--17b------------15----|--14------14------14----|
--15------15------------|-----------------------|------------------------|
------------------------|-----------------------|------------------------|
------------------------|-----------------------|------------------------|
------------------------|-----------------------|------------------------|
------------------------|-----------------------|------------------------|

               |---3---|                                        
--14----15----14--15--14--------|------------------------------|
--------------------------17----|--15--------14--15--------14--|
--------------------------------|--------16------------16------|
--------------------------------|------------------------------|
--------------------------------|------------------------------|
--------------------------------|------------------------------|

   
---------------------|------------------------------|-----------------------|
--15~----------------|--15--------14--15--------13--|--14s--------19--------|
---------------------|--------16------------16------|-----------------------|
---------------------|------------------------------|-----------------------|
---------------------|------------------------------|-----------------------|
---------------------|------------------------------|-----------------------|


------------------17----|--17b---------L--24b---17p-16p-15-|
--15------15------------|----------------------------------|
------------------------|----------------------------------|
------------------------|----------------------------------|
------------------------|----------------------------------|
------------------------|----------------------------------|

                                        |---3---|         
--14------14------14----|--14----15----14--15--14--------|
------------------------|--------------------------17----|
------------------------|--------------------------------|
------------------------|--------------------------------|
------------------------|--------------------------------|
------------------------|--------------------------------|

           
------------------------------|---------------------|
--15--------14--15--------14--|--15~----------------|
--------16------------16------|---------------------|
------------------------------|---------------------|
------------------------------|---------------------|
------------------------------|---------------------|

   
------------------------------|-----------------------|
--15--------14--15--------13--|--14s--------10--------|
--------16------------16------|-----------------------|
------------------------------|-----------------------|
------------------------------|-----------------------|
------------------------------|-----------------------|

Part Thirteen:
                       |---3---|                        |-3-|     
------------------------------------|----------------------------|
----------10--10--12--10h-12p-10-8--|--7-------7--7--8--7-8-7----|
--7---------------------------------|-------------------------9--|
------------------------------------|----------------------------|
------------------------------------|----------------------------|
------------------------------------|----------------------------|

  |-3-|                         |-3-|                       
-----------------------------|-----------------------------|
-----------------------------|-----------------------------|
--7-9-7-6-----6--7~----L-----|--7-9-7-6-----5--6~----14----|
-----------9-----------------|-----------9-----------------|
-----------------------------|-----------------------------|
-----------------------------|-----------------------------|

                        |---3---|                              |---3---|      
-----------17--17--19--17h-19p-17-15--|--14-------14--14--15--14h-15p-14-----|
--15----------------------------------|----------------------------------17--|
--------------------------------------|--------------------------------------|
--------------------------------------|--------------------------------------|
--------------------------------------|--------------------------------------|
--------------------------------------|--------------------------------------|


------------------------------|------------------------------|
--15--14------14--15~---------|--15--14------13--14----17----|
----------16------------------|----------16------------------|
------------------------------|------------------------------|
------------------------------|------------------------------|
------------------------------|------------------------------|

                                             
---------------------|-------------------|-------|-------|-------|-------||
--15~----------------|--L----------------|-------|-------|-------|-------||
---------------------|-------------------|-------|-------|-------|-------||
---------------------|-------------------|-------|-------|-------|-------||
---------------------|-------------------|-------|-------|-------|-------||
---------------------|-------------------|-------|-------|-------|-------||

Thats it! Hope you enjoy playing!
Добавлено: 25.09.2013
Другие материалы по этой песне:
  • Аккорды и текст

Страница создана 25.09.2013
http://primanota.ru/misc-unsigned-bands/trond-vold-canon-rock-chords.htm
Привет, Гость.
Предлагаем пройти революционный курс по гитаре.
Подарок от PrimaNota.Ru, забирай!