PrimaNota.ru - самый крупный в мире бесплатный архив песенных текстов, аккордов, табулатур и нот


Misc Unsigned Bands - Tryin 2 Reach - Just Another Life - таба, видео

Регистрация Запомнить меня
Войти через:  Facebook Google Twitter Vk Yandex Mail.ru

Misc Unsigned Bands - Tryin 2 Reach - Just Another Life - таба, видео

Печатать
Просмотров: 46
Just Another Life                                 
Tryin 2 Reach
Tabbed by Tryin2Reach
Lead Guitar

E||-------|-------|-------|-------|-------|-------|-------|-------|-------|
B||-------|-------|-------|-------|-------|-------|-------|-------|-------|
G||-------|-------|-------|-------|-------|-------|-------|-------|-------|
D||-------|-------|-------|-------|-------|-------|-------|-------|-------|
A||-------|-------|-------|-------|-------|-------|-------|-------|-------|
E||-------|-------|-------|-------|-------|-------|-------|-------|-------|


-------|-------|-------|-------|-------|-------|-------|-------|-------|-------|
-------|-------|-------|-------|-------|-------|-------|-------|-------|-------|
-------|-------|-------|-------|-------|-------|-------|-------|-------|-------|
-------|-------|-------|-------|-------|-------|-------|-------|-------|-------|
-------|-------|-------|-------|-------|-------|-------|-------|-------|-------|
-------|-------|-------|-------|-------|-------|-------|-------|-------|-------|


  E  E  E  E  E  E  E  E     E  E  E  E  E  E  Q       E  E  E  E  E  E  E  E   
--------------------------|-------------------------|--------------------------|
--------------------------|-------------------------|--------------------------|
--------------------------|-------------------------|--------------------------|
-----7--5--4--5--4--5--7--|-----7--5--4--5--4--2----|-----7--5--4--5--4--5--7--|
--------------------------|-------------------------|--------------------------|
--5-----------------------|--5----------------------|--5-----------------------|


  E  E  E  E  E  E  Q       E  E  E  E  E  E  E  E     E  E  E  E  E  E  Q     
-------------------------|--------------------------|-------------------------|
--------------8--7-------|--------------------------|-------------------------|
--------------------7----|--------------------------|-------------------------|
-----7--5--4-------------|-----7--5--4--5--4--5--7--|-----7--5--4--5--4--2----|
-------------------------|--------------------------|-------------------------|
--5----------------------|--5-----------------------|--5----------------------|


   E   E  E   E  E   E  E   E      E   E   E   E   E   E   E   E   
-------------------------------|----------------------------------|
-------------------------------|----------------------------------|
--12--12--x--12--x--12--x--12--|--12--12--12--12--12---x----------|
--12--12--x--12--x--12--x--12--|--12--12--12--12--12---x--11---L--|
--10--10--x--10--x--10--x--10--|--10--10--10--10--10---x--11---L--|
-------------------------------|---------------------------9---L--|


  PM PM PM PM PM PM PM PM    PM PM PM PM PM PM PM PM  
  E  E  E  E  E  E  E  E     E  E  E  E  E  E  E  E   
--------------------------|--------------------------|
--------------------------|--------------------------|
--------------------------|--------------------------|
--7--7--7--7--7--7--7--7--|--6--6--6--6--6--6--6--6--|
--7--7--7--7--7--7--7--7--|--6--6--6--6--6--6--6--6--|
--5--5--5--5--5--5--5--5--|--4--4--4--4--4--4--4--4--|


  PM PM PM PM PM PM PM PM    PM PM PM PM PM PM PM PM  
  E  E  E  E  E  E  E  E     E  E  E  E  E  E  E  E   
--------------------------|--------------------------|
--------------------------|--------------------------|
--------------------------|--7--7--7--7--7--7--7--7--|
--4--4--4--4--4--4--4--4--|--7--7--7--7--7--7--7--7--|
--4--4--4--4--4--4--4--4--|--5--5--5--5--5--5--5--5--|
--2--2--2--2--2--2--2--2--|--------------------------|


  PM PM PM PM PM PM PM PM    PM PM PM PM PM PM PM PM  
  E  E  E  E  E  E  E  E     E  E  E  E  E  E  E  E   
--------------------------|--------------------------|
--------------------------|--------------------------|
--------------------------|--------------------------|
--7--7--7--7--7--7--7--7--|--6--6--6--6--6--6--6--6--|
--7--7--7--7--7--7--7--7--|--6--6--6--6--6--6--6--6--|
--5--5--5--5--5--5--5--5--|--4--4--4--4--4--4--4--4--|


  PM PM PM PM PM PM PM PM       PM    PM    PM    PM  
  E  E  E  E  E  E  E  E     E  E  E  E  E  E  E  E   
--------------------------|--------------------------|
--------------------------|--------------------------|
--------------------------|--7--x--6--x--4--x--2--x--|
--4--4--4--4--4--4--4--4--|--7--x--6--x--4--x--2--x--|
--4--4--4--4--4--4--4--4--|--5--x--4--x--2--x--0--x--|
--2--2--2--2--2--2--2--2--|--------------------------|


  PM PM PM PM PM PM PM PM    PM PM PM PM PM PM PM PM  
  E  E  E  E  E  E  E  E     E  E  E  E  E  E  E  E   
--------------------------|--------------------------|
--------------------------|--------------------------|
--------------------------|--------------------------|
--7--7--7--7--7--7--7--7--|--6--6--6--6--6--6--6--6--|
--7--7--7--7--7--7--7--7--|--6--6--6--6--6--6--6--6--|
--5--5--5--5--5--5--5--5--|--4--4--4--4--4--4--4--4--|


  PM PM PM PM PM PM PM PM    PM PM PM PM PM PM PM PM  
  E  E  E  E  E  E  E  E     E  E  E  E  E  E  E  E   
--------------------------|--------------------------|
--------------------------|--------------------------|
--------------------------|--7--7--7--7--7--7--7--7--|
--4--4--4--4--4--4--4--4--|--7--7--7--7--7--7--7--7--|
--4--4--4--4--4--4--4--4--|--5--5--5--5--5--5--5--5--|
--2--2--2--2--2--2--2--2--|--------------------------|


  PM PM PM PM PM PM PM PM    PM PM PM PM PM PM PM PM  
  E  E  E  E  E  E  E  E     E  E  E  E  E  E  E  E   
--------------------------|--------------------------|
--------------------------|--------------------------|
--------------------------|--------------------------|
--7--7--7--7--7--7--7--7--|--6--6--6--6--6--6--6--6--|
--7--7--7--7--7--7--7--7--|--6--6--6--6--6--6--6--6--|
--5--5--5--5--5--5--5--5--|--4--4--4--4--4--4--4--4--|


  PM PM PM PM PM PM PM PM                                                 
  E  E  E  E  E  E  E  E     E  E  E  E  E  E  E  E     W                 
--------------------------|--------------------------|-------------------|
--------------------------|--------------------------|-------------------|
--------------------------|--7--7--7--7--7--7--7--7--|--9----------------|
--4--4--4--4--4--4--4--4--|--7--7--7--7--7--7--7--7--|--9----------------|
--4--4--4--4--4--4--4--4--|--5--5--5--5--5--5--5--5--|--7----------------|
--2--2--2--2--2--2--2--2--|--------------------------|-------------------|


  E  E  E  E  E  E  E  E     E  E  E  E  E  E  E  E   
--------------------------|--------------------------|
--------------------------|--------------------------|
--------------------------|--7--7--7--7--7--7--7--7--|
--7--7--7--7--7--7--7--7--|--7--7--7--7--7--7--7--7--|
--7--7--7--7--7--7--7--7--|--5--5--5--5--5--5--5--5--|
--5--5--5--5--5--5--5--5--|--------------------------|


   E   E   E   E   E   E   E   E     E  E  E  E  E  E  E  E   
----------------------------------|--------------------------|
----------------------------------|--------------------------|
--11--11--11--11--11--11--11--11--|--9--9--9--9--9--9--9--9--|
--11--11--11--11--11--11--11--11--|--9--9--9--9--9--9--9--9--|
---9---9---9---9---9---9---9---9--|--7--7--7--7--7--7--7--7--|
----------------------------------|--------------------------|


  E  E  E  E  E  E  E  E     E  E  E  E  E  E  E  E   
--------------------------|--------------------------|
--------------------------|--------------------------|
--------------------------|--7--7--7--7--7--7--7--7--|
--7--7--7--7--7--7--7--7--|--7--7--7--7--7--7--7--7--|
--7--7--7--7--7--7--7--7--|--5--5--5--5--5--5--5--5--|
--5--5--5--5--5--5--5--5--|--------------------------|


   E   E   E   E   E   E   E   E     E  E  E  E  E  E  E  E   
----------------------------------|--------------------------|
----------------------------------|--------------------------|
--11--11--11--11--11--11--11--11--|--9--9--9--9--9--9--9--9--|
--11--11--11--11--11--11--11--11--|--9--9--9--9--9--9--9--9--|
---9---9---9---9---9---9---9---9--|--7--7--7--7--7--7--7--7--|
----------------------------------|--------------------------|


  E  E  E  E  E  E  E  E     E  E  E  E  E  E  Q       E  E  E  E  E  E  E  E   
--------------------------|-------------------------|--------------------------|
--------------------------|-------------------------|--------------------------|
--------------------------|-------------------------|--------------------------|
-----7--5--4--5--4--5--7--|-----7--5--4--5--4--2----|-----7--5--4--5--4--5--7--|
--------------------------|-------------------------|--------------------------|
--5-----------------------|--5----------------------|--5-----------------------|


                       PM PM PM PM PM PM PM PM    PM PM PM PM PM PM PM PM  
  W                    E  E  E  E  E  E  E  E     E  E  E  E  E  E  E  E   
--------------------|--------------------------|--------------------------|
--------------------|--------------------------|--------------------------|
--------------------|--------------------------|--------------------------|
--7b----------------|--------7--------7-----7--|--------6--------6-----6--|
--7b----------------|--------7--------7-----7--|--------6--------6-----6--|
--5b----------------|--5--5--5--5--5--5--5--5--|--4--4--4--4--4--4--4--4--|


  PM PM PM PM PM PM PM PM    PM PM PM PM PM PM PM PM  
  E  E  E  E  E  E  E  E     E  E  E  E  E  E  E  E   
--------------------------|--------------------------|
--------------------------|--------------------------|
--------------------------|--------7--------7-----7--|
--------4--------4-----4--|--------7--------7-----7--|
--------4--------4-----4--|--5--5--5--5--5--5--5--5--|
--2--2--2--2--2--2--2--2--|--------------------------|


  PM PM PM PM PM PM PM PM    PM PM PM PM PM PM PM PM  
  E  E  E  E  E  E  E  E     E  E  E  E  E  E  E  E   
--------------------------|--------------------------|
--------------------------|--------------------------|
--------------------------|--------------------------|
--------7--------7-----7--|--------6--------6-----6--|
--------7--------7-----7--|--------6--------6-----6--|
--5--5--5--5--5--5--5--5--|--4--4--4--4--4--4--4--4--|


  PM PM PM PM PM PM PM PM                             
  E  E  E  E  E  E  E  E     E  E  E  E  E  E  E  E   
--------------------------|--------------------------|
--------------------------|--------------------------|
--------------------------|-----7-----6-----4-----2--|
--------4--------4-----4--|-----7-----6-----4-----2--|
--------4--------4-----4--|--5--5--4--4--2--2--0--0--|
--2--2--2--2--2--2--2--2--|--------------------------|


  PM PM PM PM PM PM PM PM    PM PM PM PM PM PM PM PM  
  E  E  E  E  E  E  E  E     E  E  E  E  E  E  E  E   
--------------------------|--------------------------|
--------------------------|--------------------------|
--------------------------|--------------------------|
--------7--------7-----7--|--------6--------6-----6--|
--------7--------7-----7--|--------6--------6-----6--|
--5--5--5--5--5--5--5--5--|--4--4--4--4--4--4--4--4--|


  PM PM PM PM PM PM PM PM    PM PM PM PM PM PM PM PM  
  E  E  E  E  E  E  E  E     E  E  E  E  E  E  E  E   
--------------------------|--------------------------|
--------------------------|--------------------------|
--------------------------|--------7--------7-----7--|
--------4--------4-----4--|--------7--------7-----7--|
--------4--------4-----4--|--5--5--5--5--5--5--5--5--|
--2--2--2--2--2--2--2--2--|--------------------------|


  PM PM PM PM PM PM PM PM    PM PM PM PM PM PM PM PM  
  E  E  E  E  E  E  E  E     E  E  E  E  E  E  E  E   
--------------------------|--------------------------|
--------------------------|--------------------------|
--------------------------|--------------------------|
--------7--------7-----7--|--------6--------6-----6--|
--------7--------7-----7--|--------6--------6-----6--|
--5--5--5--5--5--5--5--5--|--4--4--4--4--4--4--4--4--|


  PM PM PM PM PM PM PM PM                                                 
  E  E  E  E  E  E  E  E     E  E  E  E  E  E  E  E     W                 
--------------------------|--------------------------|-------------------|
--------------------------|--------------------------|-------------------|
--------------------------|--7--7--7--7--7--7--7--7--|--9----------------|
--------4--------4-----4--|--7--7--7--7--7--7--7--7--|--9----------------|
--------4--------4-----4--|--5--5--5--5--5--5--5--5--|--7----------------|
--2--2--2--2--2--2--2--2--|--------------------------|-------------------|


  E  E  E  E  E  E  E  E     E  E  E  E  E  E  E  E   
--------------------------|--------------------------|
--------------------------|--------------------------|
--------------------------|--7--7--7--7--7--7--7--7--|
--7--7--7--7--7--7--7--7--|--7--7--7--7--7--7--7--7--|
--7--7--7--7--7--7--7--7--|--5--5--5--5--5--5--5--5--|
--5--5--5--5--5--5--5--5--|--------------------------|


   E   E   E   E   E   E   E   E     E  E  E  E  E  E  E  E   
----------------------------------|--------------------------|
----------------------------------|--------------------------|
--11--11--11--11--11--11--11--11--|--9--9--9--9--9--9--9--9--|
--11--11--11--11--11--11--11--11--|--9--9--9--9--9--9--9--9--|
---9---9---9---9---9---9---9---9--|--7--7--7--7--7--7--7--7--|
----------------------------------|--------------------------|


  E  E  E  E  E  E  E  E     E  E  E  E  E  E  E  E   
--------------------------|--------------------------|
--------------------------|--------------------------|
--------------------------|--7--7--7--7--7--7--7--7--|
--7--7--7--7--7--7--7--7--|--7--7--7--7--7--7--7--7--|
--7--7--7--7--7--7--7--7--|--5--5--5--5--5--5--5--5--|
--5--5--5--5--5--5--5--5--|--------------------------|


   E   E   E   E   E   E   E   E     E  E  E  E  E  E  E  E   
----------------------------------|--------------------------|
----------------------------------|--------------------------|
--11--11--11--11--11--11--11--11--|--9--9--9--9--9--9--9--9--|
--11--11--11--11--11--11--11--11--|--9--9--9--9--9--9--9--9--|
---9---9---9---9---9---9---9---9--|--7--7--7--7--7--7--7--7--|
----------------------------------|--------------------------|


                               >                                        
  Q    Q    Q    Q       Q     E.  E.   E  Q       Q    Q    Q    Q     
-------5---------5----|--4p----2---4p---2--0----|-------5---------5----|
--2---------2---------|-------------------------|----------------------|
----------------------|-------------------------|--2---------2---------|
----------------------|-------------------------|----------------------|
----------------------|-------------------------|----------------------|
----------------------|-------------------------|----------------------|


  E  S  S  E   S  S  E   S  S  E    E     E  S S Q.     S S Q     
---------------------------------------|-------------------------|
---------------------------------------|-------------------------|
-----9-11-13--11-13-14--13-14-16b---L--|-----2-4-6------2-4-6----|
---------------------------------------|-------------------------|
---------------------------------------|-------------------------|
---------------------------------------|-------------------------|


  E   S  S  H.                S  S  S  S  S  S  S  S  S  S  S  S  Q      
--------------------------|---------------------------------------------|
--------------------------|---------------------------------------------|
--L--11-13-14b------------|--14-13-11-13-14-13-11-13-14-13-11-13-14b----|
--------------------------|---------------------------------------------|
--------------------------|---------------------------------------------|
--------------------------|---------------------------------------------|


   S  S  S  S  S  S  S  S  S  S  S  S  S  S  S  S     E   E.  S H        E   
--------------------------------------------------|-------------------------|
--------------------------------------------------|-------------------------|
--16-14-13-14-16-14-13-14-16-14-13-14-18-16-13-14-|--14--14-----------------|
--------------------------------------------------|-------------------------|
--------------------------------------------------|-------------------------|
--------------------------------------------------|-------------------------|


                                                E  E  E  E  E  E  E  E   
----|----|-----------|-----------|-----------|--------------------------|
----|----|-----------|-----------|-----------|--------------------------|
----|----|-----------|-----------|-----------|--------------------------|
----|----|-----------|-----------|-----------|--7--7--7--7--7--7--7--7--|
----|----|-----------|-----------|-----------|--7--7--7--7--7--7--7--7--|
----|----|-----------|-----------|-----------|--5--5--5--5--5--5--5--5--|


  E  E  E  E  E  E  E  E     E  E  E  E  E  E  E  E   
--------------------------|--------------------------|
--------------------------|--------------------------|
--6--6--6--6--6--6--6--6--|--7--7--7--7--7--7--7--7--|
--6--6--6--6--6--6--6--6--|--7--7--7--7--7--7--7--7--|
--4--4--4--4--4--4--4--4--|--5--5--5--5--5--5--5--5--|
--------------------------|--------------------------|


  E  E  E  E  E  E  E  E     E  E  E  E  E  E  E  E   
--------------------------|--------------------------|
--------------------------|--------------------------|
--9--9--9--9--9--9--9--9--|--------------------------|
--9--9--9--9--9--9--9--9--|--7--7--7--7--7--7--7--7--|
--7--7--7--7--7--7--7--7--|--7--7--7--7--7--7--7--7--|
--------------------------|--5--5--5--5--5--5--5--5--|


  E  E  E  E  E  E  E  E      E   E   E   E   E   E   E   E   
--------------------------|----------------------------------|
--------------------------|----------------------------------|
--7--7--7--7--7--7--7--7--|--11--11--11--11--11--11--11--11--|
--7--7--7--7--7--7--7--7--|--11--11--11--11--11--11--11--11--|
--5--5--5--5--5--5--5--5--|---9---9---9---9---9---9---9---9--|
--------------------------|----------------------------------|


  E  E  E  E  E  E  E  E     E  E  E  E  E  E  E  E   
--------------------------|--------------------------|
--------------------------|--------------------------|
--9--9--9--9--9--9--9--9--|--------------------------|
--9--9--9--9--9--9--9--9--|--7--7--7--7--7--7--7--7--|
--7--7--7--7--7--7--7--7--|--7--7--7--7--7--7--7--7--|
--------------------------|--5--5--5--5--5--5--5--5--|


  E  E  E  E  E  E  E  E      E   E   E   E   E   E   E   E   
--------------------------|----------------------------------|
--------------------------|----------------------------------|
--7--7--7--7--7--7--7--7--|--11--11--11--11--11--11--11--11--|
--7--7--7--7--7--7--7--7--|--11--11--11--11--11--11--11--11--|
--5--5--5--5--5--5--5--5--|---9---9---9---9---9---9---9---9--|
--------------------------|----------------------------------|


                                                          >                 
  E  E  E  E  E  E  E  E     Q    Q    Q    Q       Q     E.  E.   E  Q     
--------------------------|-------5---------5----|--4p----2---4p---2--0----|
--------------------------|--2---------2---------|-------------------------|
--9--9--9--9--9--9--9--9--|----------------------|-------------------------|
--9--9--9--9--9--9--9--9--|----------------------|-------------------------|
--7--7--7--7--7--7--7--7--|----------------------|-------------------------|
--------------------------|----------------------|-------------------------|


  Q    Q    Q    Q       E  E  E  E  E  E  E  E     Q    Q    Q    Q     
-------5---------5----|--4--2--0--2--4--5--9--7--|-------5---------5----|
----------------------|--------------------------|--2---------2---------|
--2---------2---------|--------------------------|----------------------|
----------------------|--------------------------|----------------------|
----------------------|--------------------------|----------------------|
----------------------|--------------------------|----------------------|


        >                                                                   
  Q     E.  E.   E  Q       Q    Q    Q    Q       E  E  E  E  E  E  E  E   
--4p----2---4p---2--0----|-------5---------5----|--4--2--0--2--4--5--9--7--|
-------------------------|----------------------|--------------------------|
-------------------------|--2---------2---------|--------------------------|
-------------------------|----------------------|--------------------------|
-------------------------|----------------------|--------------------------|
-------------------------|----------------------|--------------------------|


  E  E  E  E  E  E  E  E     E  E  E  E  E  E  Q       E  E  E  E  E  E  E  E   
--------------------------|-------------------------|--------------------------|
--------------------------|-------------------------|--------------------------|
--------------------------|-------------------------|--------------------------|
-----7--5--4--5--4--5--7--|-----7--5--4--5--4--2----|-----7--5--4--5--4--5--7--|
--------------------------|-------------------------|--------------------------|
--5-----------------------|--5----------------------|--5-----------------------|


                    ^                                                 TP 
  E  E  E  E  E  E  Q               S S  S S S  S S S S S S S  S S S  S  
-------------------------|-------|-------------------------------7-9-12-|
--------------8--7-------|-------|------------------------7-9-10--------|
--------------------7----|-------|----------------8-9-8-9---------------|
-----7--5--4--------7----|-------|---------7-9-11-----------------------|
--------------------5----|-------|--7-9-11------------------------------|
--5----------------------|-------|--------------------------------------|


   W                   W                    W                 
---L----------------|--------------------|-------------------|
--------------------|--------------------|-------------------|
--------------------|--------------------|-------------------|
--------------------|--7-----------------|--L----------------|
--------------------|--7-----------------|--L----------------|
--------------------|--5~----------------|--L----------------|


  W                   W                  
-------------------|-------------------||
-------------------|-------------------||
-------------------|-------------------||
--L----------------|--L----------------||
--L----------------|--L----------------||
--L----------------|--L----------------||




Duration Legend
---------------
W - whole
H - half
Q - quarter
E - 8th
S - 16th
T - 32nd
X - 64th
. - note dotted
|-n-|  - n-tuplets


Tablature Legend
----------------
L - tied note
x - dead note
g - grace note
(n) - ghost note
> - accentuded note
NH - natural harmonic
AH - artificial harmonic
TH - tapped harmonic
SH - semi harmonic
PH - pitch harmonic
h - hammer on
p - pull off
b - bend
br - bendRelease
pb - preBend
pbr - preBendRelease
brb - bendReleaseBend
\n/ - tremolo bar dip
\n - tremolo bar dive
-/n - tremolo bar Release up
/n\ - tremolo bar inverted dip
/n - tremolo bar return
-\n - tremolo bar Release down
S - shift slide
s - legato slide
/ -  slide into from below or out of upwards
\ -  slide into from above or out of downwards
~ - vibrato
W - wide vibrato
tr - trill
TP - tremolo picking
T - tapping
S - slap
P - pop
< - fade in
^ - brush up
v - brush down
Добавлено: 02.09.2013
Другие материалы по этой песне:
  • Аккорды и текст

Страница создана 02.09.2013
http://primanota.ru/misc-unsigned-bands/tryin-2-reach-just-another-life-chords.htm
Привет, Гость.
Предлагаем пройти революционный курс по гитаре.
Подарок от PrimaNota.Ru, забирай!