PrimaNota.ru - самый крупный в мире бесплатный архив песенных текстов, аккордов, табулатур и нот


Misc Unsigned Bands - Thomas Storli - Final Step - таба

Регистрация Запомнить меня
Войти через:  Facebook Google Twitter Vk Yandex Mail.ru

Misc Unsigned Bands - Thomas Storli - Final Step - таба

Печатать
Просмотров: 39
This is one of my first tabs and songs so I hope you like it :)

Capo: 3
Tuning: Standard

!!!!!

*
*  = Play 2 times
*  

** 
** = Play 3 times
**

() =  Switch to (x)   
+  =  Slide

!!!!!

    Bm          A               G              D      A
e|---------------------0-----------------0-----2--3------------------------------|
B|--3------3-----2--------2-----3---------------------2------------*-------------|
G|----4-------------2--------------0-------------------------------*-------------|
D|------4-----------------------------0--------0-------------------*-------------|
A|--2------------0------------------------------------0------------*-------------|
E|------------------------------3------------------------------------------------|
    G        D           A            G
e|------------2------------------------------------------------------------------|
B|--3-----3-----3---3=5---2-----2(0)---3-----3-----------------------------------|
G|----0-----------2---------2------------0---------------------------------------|
D|------0-----0---------------2------------0-------------------------------------|
A|------------------------0------------------------------------------------------|
E|--3----------------------------------3-----------------------------------------|
    Bm                A          G         D  A  G  Bm F#m A
e|-- ^ ------------------------------------2--0--3--2--2---0---------------------|
B|-- | ---------3=2---2-----2=3--3-----3---3--2--3--3--2---2---------------------|
G|-- | ----4------------2----------0---------------------------------------------|
D|-- | ------4------------2----------0-----0-------------------------------------|
A|-- | ---------2-----0-----------------------0-----2------0---------------------|
E|-- | --------------------------3---------------3-----2-------------------------|
   Bm          A               G              D      A
e|---------------------0-----------------0-----2--3------------------------------|
B|--3------3-----2--------2-----3---------------------2------------**------------|
G|----4-------------2--------------0-------------------------------**------------|
D|------4-----------------------------0--------0-------------------**------------|
A|--2------------0------------------------------------0------------**------------|
E|------------------------------3------------------------------------------------|
   Bm          A               G              D      A     Bm
e|---------------------0-----------------0-----2---------------------------------|
B|--3------3-----2--------2-----3---------------------2-----3--------------------|
G|----4-------------2--------------0---------------------------------------------|
D|------4-----------------------------0--------0---------------------------------|
A|--2------------0------------------------------------0-----2--------------------|
E|------------------------------3------------------------------------------------|
Добавлено: 19.11.2013
Другие материалы по этой песне:
  • Аккорды и текст

Страница создана 19.11.2013
http://primanota.ru/misc-unsigned-bands/thomas-storli-final-step-chords.htm
Привет, Гость.
Предлагаем пройти революционный курс по гитаре.
Подарок от PrimaNota.Ru, забирай!