PrimaNota.ru - самый крупный в мире бесплатный архив песенных текстов, аккордов, табулатур и нот


Misc Unsigned Bands - Visions - Fallen - таба, видео

Регистрация Запомнить меня
Войти через:  Facebook Google Twitter Vk Yandex Mail.ru

Misc Unsigned Bands - Visions - Fallen - таба, видео

Печатать
Просмотров: 57
0:00-0:11

      E  E   E  E  E   E  E  E     E  E   E  E  E  E  E  E      E  E   E  E  E   E  E  E   
D||--12--0--10--0--8--10--0--7--|--8--0---------------------|--12--0--10--0--8--10--0--7--|
A||-----------------------------|--------10--0--8--0--7--8--|-----------------------------|
F||-----------------------------|---------------------------|-----------------------------|
C||-----------------------------|---------------------------|-----------------------------|
G||-----------------------------|---------------------------|-----------------------------|
C||-----------------------------|---------------------------|-----------------------------|


  E  E   E  E  E  E  E  E      E  E   E  E  E   E  E  E     E  E   E  E  E  E  E  E   
--8--0---------------------|--12--0--10--0--8--10--0--7--|--8--0---------------------|
--------10--0--8--0--7--8--|-----------------------------|--------10--0--8--0--7--8--|
---------------------------|-----------------------------|---------------------------|
---------------------------|-----------------------------|---------------------------|
---------------------------|-----------------------------|---------------------------|
---------------------------|-----------------------------|---------------------------|


   E   E   E   E   E   E   E   E      E   E   E   E   E  E  E  E      
----------------------------------|-------------------------------|
--10--10--10--10--10--10--10--10--|--12--12--12--12--12-----------|
----------------------------------|-------------------------------|
----------------------------------|-------------------------------|
----------------------------------|-------------------------------|
----------------------------------|-------------------------------|


Harmony

0:00-0:11

     E  E  E  E  E  E  E  E     E  E  E  E  E  E  E  E     E  E  E  E  E  E  E  E   
D||--8--0--7--0--5--7--0--3--|--5--0--------------------|--8--0--7--0--5--7--0--3--|
A||--------------------------|--------7--0--5--0--3--5--|--------------------------|
F||--------------------------|--------------------------|--------------------------|
C||--------------------------|--------------------------|--------------------------|
G||--------------------------|--------------------------|--------------------------|
C||--------------------------|--------------------------|--------------------------|


  E  E  E  E  E  E  E  E     E  E  E  E  E  E  E  E     E  E  E  E  E  E  E  E   
--5--0--------------------|--8--0--7--0--5--7--0--3--|--5--0--------------------|
--------7--0--5--0--3--5--|--------------------------|--------7--0--5--0--3--5--|
--------------------------|--------------------------|--------------------------|
--------------------------|--------------------------|--------------------------|
--------------------------|--------------------------|--------------------------|
--------------------------|--------------------------|--------------------------|


  E  E  E  E  E  E  E  E     E  E  E  E  E  E  E  E      
--------------------------|--------------------------|
--5--5--5--5--5--5--5--5--|--3--3--3--3--3-----------|
--------------------------|--------------------------|
--------------------------|--------------------------|
--------------------------|--------------------------|
--------------------------|--------------------------|




0:12-0:35


   E  E  E  E  E  E  E  E   
|--------------------------|
|--------------------------|
|--9--9--9--9--9--9--9--9--|
|--7--7--7--7--7--7--7--7--|
|--7--7--7--7--7--7--7--7--|
|--7--7--7--7--7--7--7--7--|


  E  E  E  E  E  E  E  E     E  E  E  E  E  E  E  E     E  E  E  E  E  E  E  E   
--------------------------|--------------------------|--------------------------|
--------------------------|--------------------------|--------------------------|
--7--7--7--7--7--7--7--7--|--7--7--7--7--7--7--7--7--|--7--7--7--7--5--5--7--7--|
--5--5--5--5--5--5--5--5--|--0--0--0--0--0--0--0--0--|--0--0--0--0--3--3--5--5--|
--5--5--5--5--5--5--5--5--|--0--0--0--0--0--0--0--0--|--0--0--0--0--3--3--5--5--|
--5--5--5--5--5--5--5--5--|--0--0--0--0--0--0--0--0--|--0--0--0--0--3--3--5--5--|


  E  E  E  E  E  E  E  E     E  E  E  E  E  E  E  E     E  E  E  E  E  E  E  E   
--------------------------|--------------------------|--------------------------|
--------------------------|--------------------------|--------------------------|
--9--9--9--9--9--9--9--9--|--7--7--7--7--7--7--7--7--|--5--5-----7--7-----5--5--|
--7--7--7--7--7--7--7--7--|--0--0--0--0--0--0--0--0--|--3--3-----5--5-----3--3--|
--7--7--7--7--7--7--7--7--|--0--0--0--0--0--0--0--0--|--3--3-----5--5-----3--3--|
--7--7--7--7--7--7--7--7--|--0--0--0--0--0--0--0--0--|--3--3-----5--5-----3--3--|


  E  E  E  E  E  E  E  E     E  E  E  E  E  E  E  E     E  E  E  E  E  E  E  E   
--------------------------|--------------------------|--------------------------|
--------------------------|--------------------------|--------------------------|
-----7--7-----5--5--5--5--|--9--9--9--9--9--9--9--9--|--7--7--7--7--7--7--7--7--|
-----5--5-----3--3--3--3--|--7--7--7--7--7--7--7--7--|--5--5--5--5--5--5--5--5--|
-----5--5-----3--3--3--3--|--7--7--7--7--7--7--7--7--|--5--5--5--5--5--5--5--5--|
-----5--5-----3--3--3--3--|--7--7--7--7--7--7--7--7--|--5--5--5--5--5--5--5--5--|


  E  E  E  E  E  E  E  E     E  E  E  E  E  E  E  E     E  E  E  E  E  E  E  E   
--------------------------|--------------------------|--------------------------|
--------------------------|--------------------------|--------------------------|
--7--7--7--7--7--7--7--7--|--7--7--7--7--5--5--7--7--|--9--9--9--9--9--9--9--9--|
--0--0--0--0--0--0--0--0--|--0--0--0--0--3--3--5--5--|--7--7--7--7--7--7--7--7--|
--0--0--0--0--0--0--0--0--|--0--0--0--0--3--3--5--5--|--7--7--7--7--7--7--7--7--|
--0--0--0--0--0--0--0--0--|--0--0--0--0--3--3--5--5--|--7--7--7--7--7--7--7--7--|


  E  E  E  E  E  E  E  E     E  E  E  E  E  E  E  E     E  E  E  E  E  E  E  E   
--------------------------|--------------------------|--------------------------|
--------------------------|--------------------------|--------------------------|
--7--7--7--7--7--7--7--7--|--5--5-----7--7-----5--5--|-----7--7-----5--5--5--5--|
--0--0--0--0--0--0--0--0--|--3--3-----5--5-----3--3--|-----5--5-----3--3--3--3--|
--0--0--0--0--0--0--0--0--|--3--3-----5--5-----3--3--|-----5--5-----3--3--3--3--|
--0--0--0--0--0--0--0--0--|--3--3-----5--5-----3--3--|-----5--5-----3--3--3--3--|


  E  E  E  E  E  E  E  E     E  E  E  E  E  E  E  E      
--------------------------|--------------------------|
--------------------------|--------------------------|
--5--5-----7--7-----5--5--|-----7--7-----5--5--5--5--|
--3--3-----5--5-----3--3--|-----5--5-----3--3--3--3--|
--3--3-----5--5-----3--3--|-----5--5-----3--3--3--3--|
--3--3-----5--5-----3--3--|-----5--5-----3--3--3--3--|



0:36-1:20


   E  E  E  E  E  E  E  E   
|--------------------------|
|--------------------------|
|--5--5-----7--7-----5--5--|
|--3--3-----5--5-----3--3--|
|--3--3-----5--5-----3--3--|
|--3--3-----5--5-----3--3--|

              PM PM   NH                                                            
  E  E  E  E  E  E    E  E     E  E  E  E  E  E  E  E     E  E  E  E  E  E   Q      
----------------------------|--------------------------|---------------------------|
--------------------<>7--L--|--------------------------|---------------------------|
-----7--7-----------<>7--L--|--5--5-----7--7-----5--5--|-----7--7------------------|
-----5--5-------------------|--3--3-----5--5-----3--3--|-----5--5-----x--x---------|
-----5--5-----0--0----------|--3--3-----5--5-----3--3--|-----5--5-----x--x--12\----|
-----5--5-----0--0----------|--3--3-----5--5-----3--3--|-----5--5-----x--x--12\----|


  E  E  E  E  E  E  E  E     E  E  E  E  E  E  E  E     E  E  E  E  E  E  E  E   
--------------------------|--------------------------|--------------------------|
--------------------------|--------------------------|--------------------------|
--5--5-----7--7-----5--5--|-----7--7-----5--5--5--5--|--5--5-----7--7-----5--5--|
--3--3-----5--5-----3--3--|-----5--5-----3--3--3--3--|--3--3-----5--5-----3--3--|
--3--3-----5--5-----3--3--|-----5--5-----3--3--3--3--|--3--3-----5--5-----3--3--|
--3--3-----5--5-----3--3--|-----5--5-----3--3--3--3--|--3--3-----5--5-----3--3--|


              PM PM PM                                                           
  E  E  E  E  E  E  E  E     E  E  E  E  E  E  E  E     E  E  E  E  E  E  E  E   
--------------------------|--------------------------|--------------------------|
--------------------------|--------------------------|-----------------------5--|
-----7--7--------------9--|--L--9--9--9--9--9--9--9--|--9--9--9--9--9--9--9-----|
-----5--5--------------7--|--L--7--7--7--7--7--7--7--|--7--7--7--7--7--7--7--3--|
-----5--5-----3--3--3--7--|--L--7--7--7--7--7--7--7--|--7--7--7--7--7--7--7--3--|
-----5--5-----3--3--3--7--|--L--7--7--7--7--7--7--7--|--7--7--7--7--7--7--7--3--|


  E  E  E  E  E  E  E  E     E  E  E  E  E  E  E  E     E  E  E  E  E  E  E  E   
--------------------------|--------------------------|--------------------------|
--L--5--5--5--5--5--5--5--|--5--5--5--5--5--5--5-----|--------------------------|
--------------------------|-----------------------9--|--L--9--9--9--9--9--9--9--|
--L--3--3--3--3--3--3--3--|--3--3--3--3--3--3--3--7--|--L--7--7--7--7--7--7--7--|
--L--3--3--3--3--3--3--3--|--3--3--3--3--3--3--3--7--|--L--7--7--7--7--7--7--7--|
--L--3--3--3--3--3--3--3--|--3--3--3--3--3--3--3--7--|--L--7--7--7--7--7--7--7--|


  E  E  E  E  E  E  E  E     E  E  E  E  E  E  E  E     E  E  E  E  E  E  E  E   
--------------------------|--------------------------|--------------------------|
--------------------------|--------------------------|--------------------------|
--9--9--9--9--9--9--9--7--|--L--7--7--7--7--7--7--7--|--7-----7-----7--7--7-----|
--7--7--7--7--7--7--7--5--|--L--5--5--5--5--5--5--5--|--5-----5-----5--5--5--7--|
--7--7--7--7--7--7--7--5--|--L--5--5--5--5--5--5--5--|--5-----5-----5--5--5--7--|
--7--7--7--7--7--7--7--5--|--L--5--5--5--5--5--5--5--|--5-----5-----5--5--5--7--|


  E  E  E  E  E  E  E  E     E  E  E  E  E  E  E  E     E  E  E  E  E  E  E  E   
--------------------------|--------------------------|--------------------------|
--------------------------|--------------------------|--------------------------|
--------------------------|--------------------------|--------------------------|
--L--7--7--7--7--7--7--7--|--7--7--7--7--7--7--7--5--|--L--5--5--5--5--5--5--5--|
--L--7--7--7--7--7--7--7--|--7--7--7--7--7--7--7--5--|--L--5--5--5--5--5--5--5--|
--L--7--7--7--7--7--7--7--|--7--7--7--7--7--7--7--5--|--L--5--5--5--5--5--5--5--|


                                         PM PM PM                                
  E  E  E  E  E  E  E  E     E  E  E  E  E  E  E  E     E  E  E  E  E  E  E  E   
--------------------------|--------------------------|--------------------------|
--------------------------|--------------------------|--------------------------|
--------------------------|--------------------------|--------------------------|
--5--5--5--5--5--5--5--3--|--L--3--3--3-----------3--|--L--3--3--3--3--3--3--3--|
--5--5--5--5--5--5--5--3--|--L--3--3--3--3--3--3--3--|--L--3--3--3--3--3--3--3--|
--5--5--5--5--5--5--5--3--|--L--3--3--3--3--3--3--3--|--L--3--3--3--3--3--3--3--|


              PM PM PM                                                           
  E  E  E  E  E  E  E  E     E  E  E  E  E  E  E  E     E  E  E  E  E  E  E  E   
--------------------------|--------------------------|--------------------------|
--------------------------|--------------------------|--------------------------|
--------------------------|--------------------------|--------------------------|
--L--3--3--3-----------3--|--L--3--3--3--5--5--5--5--|--7--7--7--7--7--7--7--7--|
--L--3--3--3--3--3--3--3--|--L--3--3--3--5--5--5--5--|--7--7--7--7--7--7--7--7--|
--L--3--3--3--3--3--3--3--|--L--3--3--3--5--5--5--5--|--7--7--7--7--7--7--7--7--|


  E  E  E  E  E  E  E  E     E  E  E  E  E  E  E  E     E  E  E  E  E  E  E  E   
--------------------------|--------------------------|--------------------------|
--------------------------|--------------------------|--------------------------|
--------------------------|--------------------------|--------------------------|
--7--7--7--7--7--7--7--5--|--L--5--5--5--5--5--5--5--|--5--5--5--5--5--5--5--3--|
--7--7--7--7--7--7--7--5--|--L--5--5--5--5--5--5--5--|--5--5--5--5--5--5--5--3--|
--7--7--7--7--7--7--7--5--|--L--5--5--5--5--5--5--5--|--5--5--5--5--5--5--5--3--|


              PM PM PM                                              PM PM PM     
  E  E  E  E  E  E  E  E     E  E  E  E  E  E  E  E     E  E  E  E  E  E  E  E   
--------------------------|--------------------------|--------------------------|
--------------------------|--------------------------|--------------------------|
--------------------------|--------------------------|--------------------------|
--L--3--3--3-----------3--|--L--3--3--3--3--3--3--3--|--L--3--3--3-----------3--|
--L--3--3--3--3--3--3--3--|--L--3--3--3--3--3--3--3--|--L--3--3--3--3--3--3--3--|
--L--3--3--3--3--3--3--3--|--L--3--3--3--3--3--3--3--|--L--3--3--3--3--3--3--3--|


  E  E  E  E  E  E  E  E                    
--------------------------|
--------------------------|
--------------------------|
--L--3--3--3--3--5--5--5--|
--L--3--3--3--3--5--5--5--|
--L--3--3--3--3--5--5--5--|



1:20-1:42


   W                   H        E  E  E  E     W                 
|-------------------|-----------------------|-------------------|
|-------------------|-----------------------|-------------------|
|-------------------|-----------------------|-------------------|
|--7----------------|--L--------L--L--7--L--|--5----------------|
|--7----------------|--L--------L--L--7--L--|--5----------------|
|--7----------------|--L--------L--L--7--L--|--5----------------|


  H.           Q       W                   W                   W                 
--------------------|-------------------|-------------------|-------------------|
--------------------|-------------------|-------------------|-------------------|
--------------------|-------------------|-------------------|-------------------|
--L------------5----|--3----------------|--L----------------|--3----------------|
--L------------5----|--3----------------|--L----------------|--3----------------|
--L------------5----|--3----------------|--L----------------|--3----------------|


  W                   W                   H.           Q       W                 
-------------------|-------------------|--------------------|-------------------|
-------------------|-------------------|--------------------|-------------------|
-------------------|-------------------|--------------------|-------------------|
--L----------------|--7----------------|--L------------7----|--5----------------|
--L----------------|--7----------------|--L------------7----|--5----------------|
--L----------------|--7----------------|--L------------7----|--5----------------|


  H.           Q       W                   W                   E  E  E  E  E  E  E  E   
--------------------|-------------------|-------------------|--------------------------|
--------------------|-------------------|-------------------|--------------------------|
--------------------|-------------------|-------------------|--------------------------|
--L------------5----|--3----------------|--L----------------|--3--L--L--L--L--L--L--L--|
--L------------5----|--3----------------|--L----------------|--3--L--L--L--L--L--L--L--|
--L------------5----|--3----------------|--L----------------|--3--L--L--L--L--L--L--L--|


                             
  E  E  E  E  E  E  E  E      
--------------------------|
--------------------------|
--------------------------|
--3--L--L--L--L--L--L--L--|
--3--L--L--L--L--L--L--L--|
--3--L--L--L--L--L--L--L--|




1:42-2:03


   PM PM PM PM PM PM PM PM    PM PM PM PM PM PM PM PM  
   E  E  E  E  E  E  E  E     E  E  E  E  E  E  E  E   
|--------------------------|--------------------------|
|--------------------------|--------------------------|
|--------------------------|--------------------------|
|--------------------------|--------------------------|
|--3--3--3--3--3--3--3--3--|--3--3--3--3--3--3--3--3--|
|--3--3--3--3--3--3--3--3--|--3--3--3--3--3--3--3--3--|


  PM PM PM PM PM PM PM PM    PM PM PM PM PM PM PM PM    PM PM PM PM PM PM PM PM  
  E  E  E  E  E  E  E  E     E  E  E  E  E  E  E  E     E  E  E  E  E  E  E  E   
--------------------------|--------------------------|--------------------------|
--------------------------|--------------------------|--------------------------|
--------------------------|--------------------------|--------------------------|
--------------------------|--------------------------|--------------------------|
--5--5--5--5--5--5--5--5--|--5--5--5--5--5--5--5--5--|--7--7--7--7--7--7--7--7--|
--5--5--5--5--5--5--5--5--|--5--5--5--5--5--5--5--5--|--7--7--7--7--7--7--7--7--|


  PM PM PM PM PM PM PM PM    PM PM PM PM PM PM PM PM    PM PM PM PM PM PM PM PM  
  E  E  E  E  E  E  E  E     E  E  E  E  E  E  E  E     E  E  E  E  E  E  E  E   
--------------------------|--------------------------|--------------------------|
--------------------------|--------------------------|--------------------------|
--------------------------|--------------------------|--------------------------|
--------------------------|--------------------------|--------------------------|
--7--7--7--7--7--7--7--7--|--7--7--7--7--7--7--7--7--|--7--7--7--7--7--7--7--7--|
--7--7--7--7--7--7--7--7--|--7--7--7--7--7--7--7--7--|--7--7--7--7--7--7--7--7--|


  PM PM PM PM PM PM PM PM    PM PM PM PM PM PM PM PM    PM PM PM PM PM PM PM PM  
  E  E  E  E  E  E  E  E     E  E  E  E  E  E  E  E     E  E  E  E  E  E  E  E   
--------------------------|--------------------------|--------------------------|
--------------------------|--------------------------|--------------------------|
--------------------------|--------------------------|--------------------------|
--------------------------|--------------------------|--------------------------|
--3--3--3--3--3--3--3--3--|--3--3--3--3--3--3--3--3--|--5--5--5--5--5--5--5--5--|
--3--3--3--3--3--3--3--3--|--3--3--3--3--3--3--3--3--|--5--5--5--5--5--5--5--5--|


  PM PM PM PM PM PM PM PM    PM PM PM PM PM PM PM PM    PM PM PM PM PM PM PM PM  
  E  E  E  E  E  E  E  E     E  E  E  E  E  E  E  E     E  E  E  E  E  E  E  E   
--------------------------|--------------------------|--------------------------|
--------------------------|--------------------------|--------------------------|
--------------------------|--------------------------|--------------------------|
--------------------------|--------------------------|--------------------------|
--5--5--5--5--5--5--5--5--|--7--7--7--7--7--7--7--7--|--7--7--7--7--7--7--7--7--|
--5--5--5--5--5--5--5--5--|--7--7--7--7--7--7--7--7--|--7--7--7--7--7--7--7--7--|


  E  E  E  E  E  E  E  E     E  E  E  E  E  E  E  E      
--------------------------|--------------------------|
--------------------------|--------------------------|
--9--9--9--9--9--9--9--9--|--9-----------------------|
--7--7--7--7--7--7--7--7--|--7-----------------------|
--7--7--7--7--7--7--7--7--|--7-----------------------|
--7--7--7--7--7--7--7--7--|--7-----------------------|




2:04-3:08


   E  E  E  E  E  E  E  E   
|--------------------------|
|--------------------------|
|--9--9--9--9--9--9--9--9--|
|--7--7--7--7--7--7--7--7--|
|--7--7--7--7--7--7--7--7--|
|--7--7--7--7--7--7--7--7--|


  E  E  E  E  E  E  E  E     E  E  E  E  E  E  E  E     E  E  E  E  E  E  E  E   
--------------------------|--------------------------|--------------------------|
-----------------------5--|--L--5--5--5--5--5--5--5--|--5--5--5--5--5--5--5-----|
--9--9--9--9--9--9--9-----|--------------------------|-----------------------9--|
--7--7--7--7--7--7--7--3--|--L--3--3--3--3--3--3--3--|--3--3--3--3--3--3--3--7--|
--7--7--7--7--7--7--7--3--|--L--3--3--3--3--3--3--3--|--3--3--3--3--3--3--3--7--|
--7--7--7--7--7--7--7--3--|--L--3--3--3--3--3--3--3--|--3--3--3--3--3--3--3--7--|


  E  E  E  E  E  E  E  E     E  E  E  E  E  E  E  E     E  E  E  E  E  E  E  E   
--------------------------|--------------------------|--------------------------|
--------------------------|--------------------------|--------------------------|
--L--9--9--9--9--9--9--9--|--9--9--9--9--9--9--9--7--|--L--7--7--7--7--7--7--7--|
--L--7--7--7--7--7--7--7--|--7--7--7--7--7--7--7--5--|--L--5--5--5--5--5--5--5--|
--L--7--7--7--7--7--7--7--|--7--7--7--7--7--7--7--5--|--L--5--5--5--5--5--5--5--|
--L--7--7--7--7--7--7--7--|--7--7--7--7--7--7--7--5--|--L--5--5--5--5--5--5--5--|


  E  E  E  E  E  E  E  E     E  E  E  E  E  E  E  E     E  E  E  E  E  E  E  E   
--------------------------|--------------------------|--------------------------|
--------------------------|--------------------------|--------------------------|
--7-----7-----7--7--7-----|--------------------------|--------------------------|
--5-----5-----5--5--5--7--|--L--7--7--7--7--7--7--7--|--7--7--7--7--7--7--7--5--|
--5-----5-----5--5--5--7--|--L--7--7--7--7--7--7--7--|--7--7--7--7--7--7--7--5--|
--5-----5-----5--5--5--7--|--L--7--7--7--7--7--7--7--|--7--7--7--7--7--7--7--5--|


                                                                    PM PM PM     
  E  E  E  E  E  E  E  E     E  E  E  E  E  E  E  E     E  E  E  E  E  E  E  E   
--------------------------|--------------------------|--------------------------|
--------------------------|--------------------------|--------------------------|
--------------------------|--------------------------|--------------------------|
--L--5--5--5--5--5--5--5--|--5--5--5--5--5--5--5--3--|--L--3--3--3-----------3--|
--L--5--5--5--5--5--5--5--|--5--5--5--5--5--5--5--3--|--L--3--3--3--3--3--3--3--|
--L--5--5--5--5--5--5--5--|--5--5--5--5--5--5--5--3--|--L--3--3--3--3--3--3--3--|


                                         PM PM PM                                
  E  E  E  E  E  E  E  E     E  E  E  E  E  E  E  E     E  E  E  E  E  E  E  E   
--------------------------|--------------------------|--------------------------|
--------------------------|--------------------------|--------------------------|
--------------------------|--------------------------|--------------------------|
--L--3--3--3--3--3--3--3--|--L--3--3--3-----------3--|--L--3--3--3--5--5--5--5--|
--L--3--3--3--3--3--3--3--|--L--3--3--3--3--3--3--3--|--L--3--3--3--5--5--5--5--|
--L--3--3--3--3--3--3--3--|--L--3--3--3--3--3--3--3--|--L--3--3--3--5--5--5--5--|


  E  E  E  E  E  E  E  E     E  E  E  E  E  E  E  E     E  E  E  E  E  E  E  E   
--------------------------|--------------------------|--------------------------|
--------------------------|--------------------------|--------------------------|
--------------------------|--------------------------|--------------------------|
--7--7--7--7--7--7--7--7--|--7--7--7--7--7--7--7--5--|--L--5--5--5--5--5--5--5--|
--7--7--7--7--7--7--7--7--|--7--7--7--7--7--7--7--5--|--L--5--5--5--5--5--5--5--|
--7--7--7--7--7--7--7--7--|--7--7--7--7--7--7--7--5--|--L--5--5--5--5--5--5--5--|


                                         PM PM PM                                
  E  E  E  E  E  E  E  E     E  E  E  E  E  E  E  E     E  E  E  E  E  E  E  E   
--------------------------|--------------------------|--------------------------|
--------------------------|--------------------------|--------------------------|
--------------------------|--------------------------|--------------------------|
--5--5--5--5--5--5--5--3--|--L--3--3--3-----------3--|--L--3--3--3--3--3--3--3--|
--5--5--5--5--5--5--5--3--|--L--3--3--3--3--3--3--3--|--L--3--3--3--3--3--3--3--|
--5--5--5--5--5--5--5--3--|--L--3--3--3--3--3--3--3--|--L--3--3--3--3--3--3--3--|


              PM PM PM                                                           
  E  E  E  E  E  E  E  E     E  E  E  E  E  E  E  E     E  E  E  E  E  E  E  E   
--------------------------|--------------------------|--------------------------|
--------------------------|--------------------------|--------------------------|
--------------------------|--------------------------|--------------------------|
--L--3--3--3-----------3--|--L--3--3--3--5--5--5--5--|--7--7--7--7--7--7--7--7--|
--L--3--3--3--3--3--3--3--|--L--3--3--3--5--5--5--5--|--7--7--7--7--7--7--7--7--|
--L--3--3--3--3--3--3--3--|--L--3--3--3--5--5--5--5--|--7--7--7--7--7--7--7--7--|


  E  E  E  E  E  E  E  E     E  E  E  E  E  E  E  E     E  E  E  E  E  E  E  E   
--------------------------|--------------------------|--------------------------|
--------------------------|--------------------------|--------------------------|
--------------------------|--------------------------|--------------------------|
--7--7--7--7--7--7--7--5--|--L--5--5--5--5--5--5--5--|--5--5--5--5--5--5--5--3--|
--7--7--7--7--7--7--7--5--|--L--5--5--5--5--5--5--5--|--5--5--5--5--5--5--5--3--|
--7--7--7--7--7--7--7--5--|--L--5--5--5--5--5--5--5--|--5--5--5--5--5--5--5--3--|


              PM PM PM                                              PM PM PM     
  E  E  E  E  E  E  E  E     E  E  E  E  E  E  E  E     E  E  E  E  E  E  E  E   
--------------------------|--------------------------|--------------------------|
--------------------------|--------------------------|--------------------------|
--------------------------|--------------------------|--------------------------|
--L--3--3--3-----------3--|--L--3--3--3--3--3--3--3--|--L--3--3--3-----------3--|
--L--3--3--3--3--3--3--3--|--L--3--3--3--3--3--3--3--|--L--3--3--3--3--3--3--3--|
--L--3--3--3--3--3--3--3--|--L--3--3--3--3--3--3--3--|--L--3--3--3--3--3--3--3--|


  E  E  E  E  E  E  E  E     E  E  E  E  E  E  E  E     E  E  E  E  E  E  E  E   
--------------------------|--------------------------|--------------------------|
--------------------------|--------------------------|--------------------------|
--------------------------|--------------------------|--------------------------|
--L--3--3--3--5--5--5--5--|--7--7--7--7--7--7--7--7--|--7--7--7--7--7--7--7--5--|
--L--3--3--3--5--5--5--5--|--7--7--7--7--7--7--7--7--|--7--7--7--7--7--7--7--5--|
--L--3--3--3--5--5--5--5--|--7--7--7--7--7--7--7--7--|--7--7--7--7--7--7--7--5--|


                                                                    PM PM PM     
  E  E  E  E  E  E  E  E     E  E  E  E  E  E  E  E     E  E  E  E  E  E  E  E   
--------------------------|--------------------------|--------------------------|
--------------------------|--------------------------|--------------------------|
--------------------------|--------------------------|--------------------------|
--L--5--5--5--5--5--5--5--|--5--5--5--5--5--5--5--3--|--L--3--3--3-----------3--|
--L--5--5--5--5--5--5--5--|--5--5--5--5--5--5--5--3--|--L--3--3--3--3--3--3--3--|
--L--5--5--5--5--5--5--5--|--5--5--5--5--5--5--5--3--|--L--3--3--3--3--3--3--3--|


                                         PM PM PM                                
  E  E  E  E  E  E  E  E     E  E  E  E  E  E  E  E     E  E  E  E  E  E  E  E   
--------------------------|--------------------------|--------------------------|
--------------------------|--------------------------|--------------------------|
--------------------------|--------------------------|--------------------------|
--L--3--3--3--3--3--3--3--|--L--3--3--3-----------3--|--L--3--3--3--5--5--5--5--|
--L--3--3--3--3--3--3--3--|--L--3--3--3--3--3--3--3--|--L--3--3--3--5--5--5--5--|
--L--3--3--3--3--3--3--3--|--L--3--3--3--3--3--3--3--|--L--3--3--3--5--5--5--5--|


  W                   W                  
-------------------|-------------------||
-------------------|-------------------||
-------------------|-------------------||
--7----------------|--L----------------||
--7----------------|--L----------------||
--7----------------|--L----------------||







Lead Guitar



0:11-0:35


     E  E  E  E  E  E  E  E   
D||--------------------------|
A||--------------------------|
F||--9--9--9--9--9--9--9--9--|
C||--------------------------|
G||--7--7--7--7--7--7--7--7--|
C||--------------------------|


  E  E  E  E  E  E  E  E     E  E  E  E  E  E  E  E     E  E  E  E  E  E  E  E   
--------------------------|--------------------------|--------------------------|
--------------------------|--------------------------|--------------------------|
--7--7--7--7--7--7--7--7--|--5--5--5--7--7--7--5--5--|--5--7--7--7--9--9--7--7--|
--------------------------|--------------------------|--------------------------|
--5--5--5--5--5--5--5--5--|--3--3--3--5--5--5--3--3--|--3--5--5--5--7--7--5--5--|
--------------------------|--------------------------|--------------------------|


  E  E  E  E  E  E  E  E      E   E   E   E   E   E   E   E      E   E   E   E   E   E   E   E   
--------------------------|----------------------------------|----------------------------------|
--------------------------|----------------------------------|----------------------------------|
--9--9--9--9--9--9--9--9--|--12--12--12--12--12--12--12--12--|--14--14--14--16--16--16--14--14--|
--------------------------|----------------------------------|----------------------------------|
--7--7--7--7--7--7--7--7--|--10--10--10--10--10--10--10--10--|--12--12--12--14--14--14--12--12--|
--------------------------|----------------------------------|----------------------------------|


   E   E   E   E   E   E   E   E     E  E  E  E  E  E  E  E     E  E  E  E  E  E  E  E   
----------------------------------|--------------------------|--------------------------|
----------------------------------|--------------------------|--------------------------|
--14--14--14--14--14--14--14--14--|--9--9--9--9--9--9--9--9--|--7--7--7--7--7--7--7--7--|
----------------------------------|--------------------------|--------------------------|
--12--12--12--12--12--12--12--12--|--7--7--7--7--7--7--7--7--|--5--5--5--5--5--5--5--5--|
----------------------------------|--------------------------|--------------------------|


  E  E  E  E  E  E  E  E     E  E  E  E  E  E  E  E     E  E  E  E  E  E  E  E   
--------------------------|--------------------------|--------------------------|
--------------------------|--------------------------|--------------------------|
--5--5--5--7--7--7--5--5--|--5--7--7--7--9--9--7--7--|--9--9--9--9--9--9--9--9--|
--------------------------|--------------------------|--------------------------|
--3--3--3--5--5--5--3--3--|--3--5--5--5--7--7--5--5--|--7--7--7--7--7--7--7--7--|
--------------------------|--------------------------|--------------------------|


   E   E   E   E   E   E   E   E      E   E   E   E   E   E   E   E   
----------------------------------|----------------------------------|
----------------------------------|----------------------------------|
--12--12--12--12--12--12--12--12--|--14--14--14--16--16--16--14--14--|
----------------------------------|----------------------------------|
--10--10--10--10--10--10--10--10--|--12--12--12--14--14--14--12--12--|
----------------------------------|----------------------------------|


   E   E   E   E   E   E   E   E      E   E   E   E   E   E   E   E   
----------------------------------|----------------------------------|
----------------------------------|----------------------------------|
--14--14--14--14--14--14--14--14--|--14--14--14--16--16--16--17--17--|
----------------------------------|----------------------------------|
--12--12--12--12--12--12--12--12--|--12--12--12--14--14--14--15--15--|
----------------------------------|----------------------------------|


   E   E   E   E   E   E   E   E                                             
----------------------------------|
----------------------------------|
--17--17--17--17--17--17--17--17--|
----------------------------------|
--15--15--15--15--15--15--15--15--|
----------------------------------|



0:47-1:20


  S S S S S S S S S S S S S S S S    S S S S S S S S S S S S S S S S  
------------------------------7-7-|--7-7-7-7-7-7-7-7-7-7-7-7-7-7-7-7-|
----------------------------------|----------------------------------|
----------------------------------|----------------------------------|
----------------------------------|----------------------------------|
----------------------------------|----------------------------------|
----------------------------------|----------------------------------|


  S S S S S S S S  S  S  S  S  S  S  S  S     S  S  S  S  S  S  S  S  S  S  S  S  S  S  S  S  
--8-8-8-8-8-8-8-8-10-10-10-10-10-10-10-10-|--12-12-12-12-12-12-12-12-12-12-12-12-12-12-12-12-|
------------------------------------------|--------------------------------------------------|
------------------------------------------|--------------------------------------------------|
------------------------------------------|--------------------------------------------------|
------------------------------------------|--------------------------------------------------|
------------------------------------------|--------------------------------------------------|


   S  S  S  S  S  S  S  S S S S S S S S S    S S S S S S S S S S S S S S S S  
--10-10-10-10-10-10-10-10-8-8-8-8-8-8-8-8-|--7-7-7-7-7-7-7-7-7-7-7-7-7-7-7-7-|
------------------------------------------|----------------------------------|
------------------------------------------|----------------------------------|
------------------------------------------|----------------------------------|
------------------------------------------|----------------------------------|
------------------------------------------|----------------------------------|


  S S S S S S S S  S  S  S  S  S  S  S  S     S  S  S  S  S  S  S  S  S  S  S  S  S  S  S  S  
--8-8-8-8-8-8-8-8-10-10-10-10-10-10-10-10-|--13-13-13-13-13-13-13-13-13-13-13-13-13-13-13-13-|
------------------------------------------|--------------------------------------------------|
------------------------------------------|--------------------------------------------------|
------------------------------------------|--------------------------------------------------|
------------------------------------------|--------------------------------------------------|
------------------------------------------|--------------------------------------------------|


   S  S  S  S  S  S  S  S  S  S  S  S  S  S  E     E   E  E   E  E  E  E  E   
--12-12-12-12-12-12-12-12-12-12-12-12-12-12-12--|--L--10--8--10--8--7--8--7--|
------------------------------------------------|----------------------------|
------------------------------------------------|----------------------------|
------------------------------------------------|----------------------------|
------------------------------------------------|----------------------------|
------------------------------------------------|----------------------------|


  E  E   E  E  E  E  E   E     E   E  E   E  E  E  E  E     E  E   E  E  E  E  E   E   
--8--7--10--7--8--7--0--12--|--L--10--8--10--8--7--8--7--|--8--7--10--7--8--7--0--12--|
----------------------------|----------------------------|----------------------------|
----------------------------|----------------------------|----------------------------|
----------------------------|----------------------------|----------------------------|
----------------------------|----------------------------|----------------------------|
----------------------------|----------------------------|----------------------------|


  E   E  E   E  E  E  E  E     E  E   E  E  E  E  E   E     E   E  E   E  E  E  E  E   
--L--10--8--10--8--7--8--7--|--8--7--10--7--8--7--0--12--|--L--10--8--10--8--7--8--7--|
----------------------------|----------------------------|----------------------------|
----------------------------|----------------------------|----------------------------|
----------------------------|----------------------------|----------------------------|
----------------------------|----------------------------|----------------------------|
----------------------------|----------------------------|----------------------------|


  E  E   E  E  E  E  E   E     E   E   E   E    E   E   E   E      E   E   E   E  E   E  E   E   
--8--7--10--7--8--7--0--12--|--L--10--12--13s--15--13--12--13--|--12--10--12--10--8--10--7--12--|
----------------------------|----------------------------------|--------------------------------|
----------------------------|----------------------------------|--------------------------------|
----------------------------|----------------------------------|--------------------------------|
----------------------------|----------------------------------|--------------------------------|
----------------------------|----------------------------------|--------------------------------|


  E   E   E   E    E   E   E   E      E   E   E   E  E   E  E   E     E   E  E   E  E  E  E  E   
--L--10--12--13s--15--13--12--13--|--12--10--12--10--8--10--7--12--|--L--10--8--10--8--7--8--7--|
----------------------------------|--------------------------------|----------------------------|
----------------------------------|--------------------------------|----------------------------|
----------------------------------|--------------------------------|----------------------------|
----------------------------------|--------------------------------|----------------------------|
----------------------------------|--------------------------------|----------------------------|


  E  E   E  E  E  E  E   E     E   E  E   E  E  E  E  E     E  E   E  E  E  E  E   E   
--8--7--10--7--8--7--0--12--|--L--10--8--10--8--7--8--7--|--8--7--10--7--8--7--0---L--|
----------------------------|----------------------------|----------------------------|
----------------------------|----------------------------|----------------------------|
----------------------------|----------------------------|----------------------------|
----------------------------|----------------------------|----------------------------|
----------------------------|----------------------------|----------------------------|




1:20-1:42



   E   E   E   E   E   E   E   E      E   E   E   E   E   E   E   E   
--12--12--12--12--12--12--12--12--|--12--15--15--15--15--------------|
----------------------------------|----------------------15--15--15--|
----------------------------------|----------------------------------|
----------------------------------|----------------------------------|
----------------------------------|----------------------------------|
----------------------------------|----------------------------------|


   E   E   E   E   E   E   E   E      E   E   E   E   E   E   E   E   
------12--12--12--12--12--12--12--|--10--10--10--10------------------|
--15------------------------------|------------------12--12--12--12--|
----------------------------------|----------------------------------|
----------------------------------|----------------------------------|
----------------------------------|----------------------------------|
----------------------------------|----------------------------------|


   E   E   E   E   E   E   E   E      E   E   E   E   E   E   E   E   
----------------------------------|----------------------------------|
--10--10--10--10--10--10--10--10--|--10--10--10--10--12--12--12--12--|
----------------------------------|----------------------------------|
----------------------------------|----------------------------------|
----------------------------------|----------------------------------|
----------------------------------|----------------------------------|


   E   E   E   E   E   E   E   E      E   E   E   E   E   E   E   E   
----------------------------------|----------------------------------|
--10--10--10--10--10--10--10--10--|----------------------------------|
----------------------------------|--12--12--12--12--12--12--12--12--|
----------------------------------|----------------------------------|
----------------------------------|----------------------------------|
----------------------------------|----------------------------------|


   E   E   E   E   E   E   E   E      E   E   E   E   E   E   E   E   
--12--12--12--12--12--12--12--12--|--12--15--15--15--15--------------|
----------------------------------|----------------------15--15--15--|
----------------------------------|----------------------------------|
----------------------------------|----------------------------------|
----------------------------------|----------------------------------|
----------------------------------|----------------------------------|


   E   E   E   E   E   E   E   E      E   E   E   E   E   E   E   E   
------12--12--12--12--12--12--12--|--10--10--10--10------------------|
--15------------------------------|------------------12--12--12--12--|
----------------------------------|----------------------------------|
----------------------------------|----------------------------------|
----------------------------------|----------------------------------|
----------------------------------|----------------------------------|


   E   E   E   E   E   E   E   E      E   E   E   E   E   E   E   E   
----------------------------------|----------------------------------|
--10--10--10--10--10--10--10--10--|--10--10--10--10--12--12--12--12--|
----------------------------------|----------------------------------|
----------------------------------|----------------------------------|
----------------------------------|----------------------------------|
----------------------------------|----------------------------------|


   E   E   E   E   E   E   E   E      E   E   E   E   E   E   E    E                           
----------------------------------|-----------------------------------|
--10--10--10--10--10--10--10--10--|-----------------------------------|
----------------------------------|--12--12--12--12--12---L---L\---L--|
----------------------------------|-----------------------------------|
----------------------------------|-----------------------------------|
----------------------------------|-----------------------------------|




2:04-3:08


  S S S S S S S S S S S S S S S S    S S S S S S S S  S  S  S  S  S  S  S  S  
--7-7-7-7-7-7-7-7-7-7-7-7-7-7-7-7-|--8-8-8-8-8-8-8-8-10-10-10-10-10-10-10-10-|
----------------------------------|------------------------------------------|
----------------------------------|------------------------------------------|
----------------------------------|------------------------------------------|
----------------------------------|------------------------------------------|
----------------------------------|------------------------------------------|


   S  S  S  S  S  S  S  S  S  S  S  S  S  S  S  S     S  S  S  S  S  S  S  S S S S S S S S S  
--12-12-12-12-12-12-12-12-12-12-12-12-12-12-12-12-|--10-10-10-10-10-10-10-10-8-8-8-8-8-8-8-8-|
--------------------------------------------------|------------------------------------------|
--------------------------------------------------|------------------------------------------|
--------------------------------------------------|------------------------------------------|
--------------------------------------------------|------------------------------------------|
--------------------------------------------------|------------------------------------------|


  S S S S S S S S S S S S S S S S    S S S S S S S S  S  S  S  S  S  S  S  S  
--7-7-7-7-7-7-7-7-7-7-7-7-7-7-7-7-|--8-8-8-8-8-8-8-8-10-10-10-10-10-10-10-10-|
----------------------------------|------------------------------------------|
----------------------------------|------------------------------------------|
----------------------------------|------------------------------------------|
----------------------------------|------------------------------------------|
----------------------------------|------------------------------------------|


   S  S  S  S  S  S  S  S  S  S  S  S  S  S  S  S     S  S  S  S  S  S  S  S  S  S  S  S  S  S  E   
--13-13-13-13-13-13-13-13-13-13-13-13-13-13-13-13-|--12-12-12-12-12-12-12-12-12-12-12-12-12-12-12--|
--------------------------------------------------|------------------------------------------------|
--------------------------------------------------|------------------------------------------------|
--------------------------------------------------|------------------------------------------------|
--------------------------------------------------|------------------------------------------------|
--------------------------------------------------|------------------------------------------------|


  E   E  E   E  E  E  E  E     E  E   E  E  E  E  E   E     E   E  E   E  E  E  E  E   
--L--10--8--10--8--7--8--7--|--8--7--10--7--8--7--0--12--|--L--10--8--10--8--7--8--7--|
----------------------------|----------------------------|----------------------------|
----------------------------|----------------------------|----------------------------|
----------------------------|----------------------------|----------------------------|
----------------------------|----------------------------|----------------------------|
----------------------------|----------------------------|----------------------------|


  E  E   E  E  E  E  E   E     E   E  E   E  E  E  E  E     E  E   E  E  E  E  E   E   
--8--7--10--7--8--7--0--12--|--L--10--8--10--8--7--8--7--|--8--7--10--7--8--7--0--12--|
----------------------------|----------------------------|----------------------------|
----------------------------|----------------------------|----------------------------|
----------------------------|----------------------------|----------------------------|
----------------------------|----------------------------|----------------------------|
----------------------------|----------------------------|----------------------------|


  E   E  E   E  E  E  E  E     E  E   E  E  E  E  E   E     E   E   E   E    E   E   E   E   
--L--10--8--10--8--7--8--7--|--8--7--10--7--8--7--0--12--|--L--10--12--13s--15--13--12--13--|
----------------------------|----------------------------|----------------------------------|
----------------------------|----------------------------|----------------------------------|
----------------------------|----------------------------|----------------------------------|
----------------------------|----------------------------|----------------------------------|
----------------------------|----------------------------|----------------------------------|


   E   E   E   E  E   E  E   E     E   E   E   E    E   E   E   E   
--12--10--12--10--8--10--7--12--|--L--10--12--13s--15--13--12--13--|
--------------------------------|----------------------------------|
--------------------------------|----------------------------------|
--------------------------------|----------------------------------|
--------------------------------|----------------------------------|
--------------------------------|----------------------------------|


   E   E   E   E  E   E  E   E     E   E  E   E  E  E  E  E     E  E   E  E  E  E  E   E   
--12--10--12--10--8--10--7--12--|--L--10--8--10--8--7--8--7--|--8--7--10--7--8--7--0--12--|
--------------------------------|----------------------------|----------------------------|
--------------------------------|----------------------------|----------------------------|
--------------------------------|----------------------------|----------------------------|
--------------------------------|----------------------------|----------------------------|
--------------------------------|----------------------------|----------------------------|


  E   E  E   E  E  E  E  E     E  E   E  E  E  E  E  E   
--L--10--8--10--8--7--8--7--|--8--7--10--7--8--7--0--L--|
----------------------------|---------------------------|
----------------------------|---------------------------|
----------------------------|---------------------------|
----------------------------|---------------------------|
----------------------------|---------------------------|


   S  S  S  S  S  S  S  S  S  S  S  S  S  S  S  S  
--12-12-12-12-12-12-12-12-12-12-12-12-12-12-12-12-|
--------------------------------------------------|
--------------------------------------------------|
--------------------------------------------------|
--------------------------------------------------|
--------------------------------------------------|


   S  S  S  S  S  S  S  S  S  S  S  S  S  S  S  S  
--12-12-12-12-12-12-12-12-15-15-15-15-15-15-15-15-|
--------------------------------------------------|
--------------------------------------------------|
--------------------------------------------------|
--------------------------------------------------|
--------------------------------------------------|


   S  S  S  S  S  S  S  S  S  S  S  S  S  S  S  S  
--------------------------------------------------|
--15-15-15-15-15-15-15-15-15-15-15-15-15-15-15-15-|
--------------------------------------------------|
--------------------------------------------------|
--------------------------------------------------|
--------------------------------------------------|


   S  S  S  S  S  S  S  S  S  S  S  S  S  S  S  S  
--12-12-12-12-12-12-12-12-15-15-15-15-15-15-15-15-|
--------------------------------------------------|
--------------------------------------------------|
--------------------------------------------------|
--------------------------------------------------|
--------------------------------------------------|


   S  S  S  S  S  S  S  S  S  S  S  S  S  S  S  S  
--------------------------------------------------|
--15-15-15-15-15-15-15-15-15-15-15-15-15-15-15-15-|
--------------------------------------------------|
--------------------------------------------------|
--------------------------------------------------|
--------------------------------------------------|


   S  S  S  S  S  S  S  S  S  S  S  S  S  S  S  S  
--------------------------------------------------|
--13-13-13-13-13-13-13-13-13-13-13-13-13-13-13-13-|
--------------------------------------------------|
--------------------------------------------------|
--------------------------------------------------|
--------------------------------------------------|


   S  S  S  S  S  S  S  S  S  S  S  S  S  S  S  S  
--------------------------------------------------|
--15-15-15-15-15-15-15-15-15-15-15-15-15-15-15-15-|
--------------------------------------------------|
--------------------------------------------------|
--------------------------------------------------|
--------------------------------------------------|


   S  S  S  S  S  S  S  S  S  S  S  S  S  S  S  S  
--------------------------------------------------|
--13-13-13-13-13-13-13-13-13-13-13-13-13-13-13-13-|
--------------------------------------------------|
--------------------------------------------------|
--------------------------------------------------|
--------------------------------------------------|


   S  S  S  S  S  S  S  S  S  S  S  S  S  S  S  S  
--12-12-12-12-12-12-12-12-12-12-12-12-12-12-12-12-|
--------------------------------------------------|
--------------------------------------------------|
--------------------------------------------------|
--------------------------------------------------|
--------------------------------------------------|


   S  S  S  S  S  S  S  S  S  S  S  S  S  S  S  S  
--12-12-12-12-12-12-12-12-15-15-15-15-15-15-15-15-|
--------------------------------------------------|
--------------------------------------------------|
--------------------------------------------------|
--------------------------------------------------|
--------------------------------------------------|


   S  S  S  S  S  S  S  S  S  S  S  S  S  S  S  S  
--------------------------------------------------|
--15-15-15-15-15-15-15-15-15-15-15-15-15-15-15-15-|
--------------------------------------------------|
--------------------------------------------------|
--------------------------------------------------|
--------------------------------------------------|


   S  S  S  S  S  S  S  S  S  S  S  S  S  S  S  S  
--12-12-12-12-12-12-12-12-15-15-15-15-15-15-15-15-|
--------------------------------------------------|
--------------------------------------------------|
--------------------------------------------------|
--------------------------------------------------|
--------------------------------------------------|


   S  S  S  S  S  S  S  S  S  S  S  S  S  S  S  S  
--17-17-17-17-17-17-17-17-17-17-17-17-17-17-17-17-|
--------------------------------------------------|
--------------------------------------------------|
--------------------------------------------------|
--------------------------------------------------|
--------------------------------------------------|


   S  S  S  S  S  S  S  S  S  S  S  S  S  S  S  S  
--15-15-15-15-15-15-15-15-15-15-15-15-15-15-15-15-|
--------------------------------------------------|
--------------------------------------------------|
--------------------------------------------------|
--------------------------------------------------|
--------------------------------------------------|


   S  S  S  S  S  S  S  S  S  S  S  S  S  S  S  S  
--17-17-17-17-17-17-17-17-17-17-17-17-17-17-17-17-|
--------------------------------------------------|
--------------------------------------------------|
--------------------------------------------------|
--------------------------------------------------|
--------------------------------------------------|


   S  S  S  S  S  S  S  S  S  S  S  S  S  S  S  S     W                   W                  
--19-19-19-19-19-19-19-19-19-19-19-19-19-19-19-19-|--20----------------|--L----------------||
--------------------------------------------------|--------------------|-------------------||
--------------------------------------------------|--------------------|-------------------||
--------------------------------------------------|--------------------|-------------------||
--------------------------------------------------|--------------------|-------------------||
--------------------------------------------------|--------------------|-------------------||




Duration Legend
---------------
W - whole
H - half
Q - quarter
E - 8th
S - 16th
T - 32nd
X - 64th
. - note dotted
|-n-|  - n-tuplets


Tablature Legend
----------------
L - tied note
x - dead note
g - grace note
(n) - ghost note
> - accentuded note
NH - natural harmonic
AH - artificial harmonic
TH - tapped harmonic
SH - semi harmonic
PH - pitch harmonic
h - hammer on
p - pull off
b - bend
br - bendRelease
pb - preBend
pbr - preBendRelease
brb - bendReleaseBend
\n/ - tremolo bar dip
\n - tremolo bar dive
-/n - tremolo bar Release up
/n\ - tremolo bar inverted dip
/n - tremolo bar return
-\n - tremolo bar Release down
S - shift slide
s - legato slide
/ -  slide into from below or out of upwards
\ -  slide into from above or out of downwards
~ - vibrato
W - wide vibrato
tr - trill
TP - tremolo picking
T - tapping
S - slap
P - pop
< - fade in
^ - brush up
v - brush down
Добавлено: 30.01.2014
Другие материалы по этой песне:
  • Аккорды и текст

Страница создана 30.01.2014
http://primanota.ru/misc-unsigned-bands/visions-fallen-chords.htm
Привет, Гость.
Предлагаем пройти революционный курс по гитаре.
Подарок от PrimaNota.Ru, забирай!