PrimaNota.ru - самый крупный в мире бесплатный архив песенных текстов, аккордов, табулатур и нот


Misc Unsigned Bands - The Spacepimps - True Life I Wear Girls Jeans - таба

Регистрация Запомнить меня
Войти через:  Facebook Google Twitter Vk Yandex Mail.ru

Misc Unsigned Bands - The Spacepimps - True Life I Wear Girls Jeans - таба

Печатать
Просмотров: 42
Intro
      Acoustic Guitar
E||----------------------------------|----------------------------------|
B||----------3---------------3-------|----------3---------------3-------|
G||----2---2---2---2---2---2---2---2-|----2---2---2---2---2---2---2---2-|
D||--0---0-------0---0---0-------0---|--4---4-------4---5---5-------5---|x6
A||----------------------------------|----------------------------------|
D||----------------------------------|----------------------------------|

Second guitar comes in on the third time with:
----------3p-2----------3p-2----|----------3p-2----------3p-2----|
--------3-------------3---------|--------3-------------3---------|
-----2-------------2------------|-----2-------------2------------|
--------------------------------|--------------------------------|
--------------------------------|--------------------------------|
--------------------------------|--------------------------------|

That plays behind the third and fourth time then the verse plays behind the fifth and 
time

Verse/Chorus
              Electric Guitar clean
----------------------------|----------------------------|
--7----7--7-7-7-7-7--7--7-7-|--7----7--7-7-7-7-7--7--7-7-|
--7----7--7-7-7-7-7--7--7-7-|--7----7--7-7-7-7-7--7--7-7-|
----------------------------|----------------------------|For Chorus Just
----------------------------|----------------------------|Play Louder
--0----0--0-0-0-0-7--7--7-7-|--9----9--9-9-9-9-5--5--5-5-|

That plays for almost the whole song except for the second verse which is:

----------------------------|----------------------------|
--7----7--7-7-7-7-7--7--7-7-|--7----7--7-7-7-7-7--7--7-7-|
--7----7--7-7-7-7-7--7--7-7-|--7----7--7-7-7-7-7--7--7-7-|
----------------------------|----------------------------|
----------------------------|----------------------------|
--0----0--0-0-0-0-9--9--9-9-|--4----4--4-4-4-4-5--5--5-5-|

Bridge part 1:

---------------------------------|----------------------------------|
--7-7-7-7-----7-7-7-7-----7-7----|--7-7-7-7-----7-7-7-7-----7-7-----|
--7-7-7-7-----7-7-7-7-----7-7----|--7-7-7-7-----7-7-7-7-----7-7-----|
---------------------------------|----------------------------------|x2
---------------------------------|----------------------------------|
--0-0-0-0-----9-9-9-9-----9-9----|--4-4-4-4-----5-5-5-5-----5-5-----|

Bridge part 2:

----------------------------------|---------------------------------|
--7-7-7-7-7-7-7-7-7-7-7-7-7-7-7-7-|--7-7-7-7-7-7-7-7-7-7-7-7-7------|
--7-7-7-7-7-7-7-7-7-7-7-7-7-7-7-7-|--7-7-7-7-7-7-7-7-7-7-7-7-7------|
----------------------------------|---------------------------------|
----------------------------------|---------------------------------|
--0-0-0-0-0-0-2-2-2-2-2-2-2-2-2-2-|--4-4-4-4-4-4-5-5-5-5-5-5-5------|

Behind bridge part two play this:

--2--------0-------------|--2--------0-------------|
-----3--------3-----3----|-----3--------3----------|
--------2--------2-------|--------2--------2-------|
-------------------------|-------------------------|x2
-------------------------|-------------------------|
-------------------------|-------------------------|

Right after that it plays the verse/chorus again, the second that starts hit 3 on the b 
and let it ring and after it plays that once hit these harmonics:
    N.H       N.H
--------------------------|
--------------------------|
----7---------------------|
--------------7-----------|
--------------------------|
--------------------------|

Then Bridge one plays again before the chorus and after the chorus plays this:

|--------------------------|--------------------------|
|--7--7--7--7--7--7--7--7--|--7--7--7--7--7--7--7--7--|
|--7--7--7--7--7--7--7--7--|--7--7--7--7--7--7--7--7--|
|--------------------------|--------------------------|x2
|--------------------------|--------------------------|
|--0--0--0--0--2--2--2--2--|--4--4--4--4--5--5--5--5--|

Then it end with:

---------------------------------|----------------------------------|
--7-7-7-7-----7-7-7-7-----7-7----|--7-7-7-7-----7-7-7-7-----7-7-----|
--7-7-7-7-----7-7-7-7-----7-7----|--7-7-7-7-----7-7-7-7-----7-7-----|
---------------------------------|----------------------------------|
---------------------------------|----------------------------------|
--0-0-0-0-----9-9-9-9-----9-9----|--4-4-4-4-----5-5-5-5-----5-5-----|

---------------------------------|-------------------------||
--7-7-7-7-----7-7-7-7-----7-7----|--7-7--------------------||
--7-7-7-7-----7-7-7-7-----7-7----|--7-7--------------------||
---------------------------------|-------------------------||
---------------------------------|--------2----0--------L--||
--0-0-0-0-----9-9-9-9-----9-9----|--4-4-x-2-x--0--------L--||

Enjoy!
Добавлено: 20.11.2013
Другие материалы по этой песне:
  • Аккорды и текст

Страница создана 20.11.2013
http://primanota.ru/misc-unsigned-bands/the-spacepimps-true-life-i-wear-girls-jeans-chords.htm
Привет, Гость.
Предлагаем пройти революционный курс по гитаре.
Подарок от PrimaNota.Ru, забирай!