PrimaNota.ru - самый крупный в мире бесплатный архив песенных текстов, аккордов, табулатур и нот


Misc Unsigned Bands - The Swell Season - Falling Slowly - таба, видео

Регистрация Запомнить меня
Войти через:  Facebook Google Twitter Vk Yandex Mail.ru

Misc Unsigned Bands - The Swell Season - Falling Slowly - таба, видео

Печатать
Просмотров: 61
The previous tab was nearly spot-on, but I tried to add in some of the notes contributed 
the piano so that if you're playing this on guitar without a piano, that it 'sounds' 
like the complete song. Obviously, use your better judgment.
Don't let the lengthy chord names fool you, they're rather simple changes (see bottom of 
for chord diagrams). Many chords use the thumb over the top to get the low E string.
Cheers,
-Scott


(Pattern 1)
   (Cadd9)			          (Cadd9/F#)
e------------------------0--------------------------------------------1----------0-----|
B------------3---------------------3----------------------3----------------------------|
G-------0---------0---------0----------0-----------0---------0----------0-----------0--|
D--------------------------------------------------------------------------------------|
A--3-----------------------------------------------------------------------------------|
E-----------------------------------------------1--------------------------------------|
   (Cadd9)			                 (C/F#)
e----------------------0---------------------------------------------------------------|
B------------3-------------------3------------1------------1----------1------------1---|
G-------0-------0---------0---------0--------------0-----------0----------0-----------0|
D--------------------------------------------------------------------------------------|
A--3-----------------------------------------------------------------------------------|
E---------------------------------------------1----------------------------------------|

(Pattern 2)
     (Am)	          (G)	                (F)      	      (G)
e-----------0-----------------------------------------------------------------------|
B--------------------------------3---------------------1---------------------3------|
G--------2-----2--------------2-----2---------------2-----2---------------0-----0---|
D-----------------------------------------------------------------------------------|
A-----0-----------------------------------------------------------------------------|
E--------------------------3---------------------1---------------------3------------|
      (Am)	       (G)		        (Fadd9)(strum into chorus)
e -----------0-----------------------------------3------------|
B ---------------------------------3-------------1------------|
G --------2-----2---------------2-----2----------2------------|
D -----------------------------------------------3------------|
A -----0-----------------------------------------0------------|
E ---------------------------3-------------------1------------|

Verse 1:
(Pattern 1)
I don
Добавлено: 28.12.2013
Другие материалы по этой песне:
  • Аккорды и текст

Страница создана 28.12.2013
http://primanota.ru/misc-unsigned-bands/the-swell-season-falling-slowly-chords.htm
Привет, Гость.
Предлагаем пройти революционный курс по гитаре.
Подарок от PrimaNota.Ru, забирай!