PrimaNota.ru - самый крупный в мире бесплатный архив песенных текстов, аккордов, табулатур и нот


Misc Unsigned Bands - The Pagans - Bass Shiz - бас-таба

Регистрация Запомнить меня
Войти через:  Facebook Google Twitter Vk Yandex Mail.ru

Misc Unsigned Bands - The Pagans - Bass Shiz - бас-таба

Печатать
Просмотров: 36
G|11-8-6--2-2-4-4--2-2-4-4--9-7--|
D|-9-6-4--0-0-2-2--0-0-2-2--7-5--|
A|-------------------------------|
E|-------------------------------|

G|---9--11------12-----12-12-----------|
D|-------------------------------7-9b--|
A|-7---9----10------10-----------------|
E|-------------------------------------|

G|-9h11--11-9---------9-|
D|---------------9h11---|
A|----------------------|
E|----------------------|

G|--------9h11-9h11---|
D|-9-9--11------------|
A|--------------------|
E|--------------------|

G|---7-9----9-11----12-14----9-11-|
D|-9-----11------14-------11------|
A|--------------------------------|
E|--------------------------------|

slap n stuff
Добавлено: 08.08.2013
Другие материалы по этой песне:
  • Аккорды и текст

Страница создана 08.08.2013
http://primanota.ru/misc-unsigned-bands/the-pagans-bass-shiz-chords.htm
Привет, Гость.
Предлагаем пройти революционный курс по гитаре.
Подарок от PrimaNota.Ru, забирай!