PrimaNota.ru - самый крупный в мире бесплатный архив песенных текстов, аккордов, табулатур и нот


Misc Unsigned Bands - The Ponys - Double Vision - бас-таба

Регистрация Запомнить меня
Войти через:  Facebook Google Twitter Vk Yandex Mail.ru

Misc Unsigned Bands - The Ponys - Double Vision - бас-таба

Печатать
Просмотров: 62
Band's site- There official site isnt working so I have 3 here.
http://www.intheredrecords.com/pages/ponys.html
http://en.wikipedia.org/wiki/The_Ponys_(band)
profile.myspace.com/index.cfm?fuseaction=user.viewProfile&friendID=5252876

Have fun with this easy song!


Intro-
No bass

Verse
G|----------------|
D|-----5-7--------|  16X
A|---7-------5-3--|
E|-5-------3------|

Chorus-
G|----------------|
D|-5--------------|  4X
A|---5------------|
E|-----5----------|

Verse-
G|----------------|
D|-----5-7--------|  16X
A|---7-------5-3--|
E|-5-------3------|

Chorus-
G|----------------|
D|-5--------------|  4X
A|---5------------|
E|-----5----------|

Outro-
Chorus
G|-----------------------|
D|----------55555--------|  8X
A|----------------55555--|
E|-55555555--------------|

outro 2-
Chorus
G|----------------|
D|-5--------------|  1X
A|---5------------|
E|-----5----------|
Добавлено: 02.09.2013
Другие материалы по этой песне:
  • Аккорды и текст

Страница создана 02.09.2013
http://primanota.ru/misc-unsigned-bands/the-ponys-double-vision-chords.htm
Привет, Гость.
Предлагаем пройти революционный курс по гитаре.
Подарок от PrimaNota.Ru, забирай!