PrimaNota.ru - самый крупный в мире бесплатный архив песенных текстов, аккордов, табулатур и нот


Misc Unsigned Bands - The Old 319 - Halloween - таба, видео

Регистрация Запомнить меня
Войти через:  Facebook Google Twitter Vk Yandex Mail.ru

Misc Unsigned Bands - The Old 319 - Halloween - таба, видео

Печатать
Просмотров: 49
Уроки эстрадного вокала в Санкт-Петербурге
------------------------------------------------------------------------|
------------------------------------------------------------------------|
----5----5---------------5----5--------------5----5--------------5----5-|
----5----5----4----4-----5----5----4----4----5----5----4----4----5----5-|
-33-3-33-3----4----4--33-3-33-3----4----4-33-3-33-3----4----4-33-3-33-3-|
-----------22-2-22-2------------22-2-22-2-----------22-2-22-2-----------|

-----------|
-----------|
-----------|
----4----4-|
----4----4-|
-22-2-22-2-|

------------------------------------------------------------|
------------------------------------------------------------|
------------------------------------------------------------|
-33333-44444-55555-66666--33333-44444-55555-44444--444-444--|
-11111-22222-33333-44444--11111-22222-33333-44444--444-444--|
---------------------------------------------------222-222--|

--------------------------------------------------|
--------------------------------------------------|
--66----55----66-----333---66----55----66-----333-|
--66-55-55-4--66-55--333---66-55-55-4--66-55--333-|
--44-55-33-4--44-55--111---44-55-33-4--44-55--111-|
-----33----2-----33-----------33----2-----33------|

-
Добавлено: 04.08.2013
Другие материалы по этой песне:
  • Аккорды и текст

Страница создана 04.08.2013
http://primanota.ru/misc-unsigned-bands/the-old-319-halloween-chords.htm
Привет, Гость.
Предлагаем пройти революционный курс по гитаре.
Подарок от PrimaNota.Ru, забирай!