PrimaNota.ru - самый крупный в мире бесплатный архив песенных текстов, аккордов, табулатур и нот


Misc Unsigned Bands - The Last Troubadour - Catalina If Looks Killed Youd Be The Death Of Me - таба

Регистрация Запомнить меня
Войти через:  Facebook Google Twitter Vk Yandex Mail.ru

Misc Unsigned Bands - The Last Troubadour - Catalina If Looks Killed Youd Be The Death Of Me - таба

Печатать
Просмотров: 64
Уроки эстрадного вокала в Санкт-Петербурге
Guitar 1 (Frankie)

e|--------------------------------------------------------------------------|
B|--------------------------------------------------------------------------|
G|--------------------------------------------------------------------------|
D|------------------------------------------4------------------4------------|
A|----5--4--2--0--0------5--4--2--0--0---------7--5--4--4---------7--555----|
D|-000-00-00-00-00----000-00-00-00-00----333-33-33-33-33----333-33-33-------|

X2

Guitar 2 (Patrick)

e|--------------------------------------------------------------------------|
B|--------------------------------------------------------------------------|
G|--------------------------------------------------------------------------|
D|----4--2---------------4--2---------------7--5--4--5--4------7--5--444----|
A|----------5--4--4------------5--4--4--------------------------------------|
D|-000-00-00-00-00----000-00-00-00-00----333-33-33-33-33----333-33-33-------|

X2

Both Guitars (Frankie/Patrick)
                             D
e|---------------------------2----------------------------------------------|
B|---------------------------3----------------------------------------------|
G|--4------6-----------------2----------------------------------------------|
D|--4------6-----5-4-0-5-4-0-0----------------------------------------------|
A|--2------4-----5-4-0-5-4-0-0----------------------------------------------|
D|---------------5-4-0-5-4-0-0----------------------------------------------|
Добавлено: 02.12.2013
Другие материалы по этой песне:
  • Аккорды и текст

Страница создана 02.12.2013
http://primanota.ru/misc-unsigned-bands/the-last-troubadour-catalina-if-looks-killed-youd-be-the-death-of-me-chords.htm
Привет, Гость.
Предлагаем пройти революционный курс по гитаре.
Подарок от PrimaNota.Ru, забирай!