PrimaNota.ru - самый крупный в мире бесплатный архив песенных текстов, аккордов, табулатур и нот


Misc Unsigned Bands - Tkjn - Stormfield - таба

Регистрация Запомнить меня
Войти через:  Facebook Google Twitter Vk Yandex Mail.ru

Misc Unsigned Bands - Tkjn - Stormfield - таба

Печатать
Просмотров: 63
This Song is by TKJN,and was featured in the game SCGMD4 (Super Crazy Guitar Maniac 
Deluxe 4) I do not own this song.

             (Guitar 2)     (( Repeats over and over throughout song))
e|----------------------------|
B|----------------------------|
G|----------------------------|
D|-1-----------5--------------|
A|-1-----------5--------------|
E|-0-----------3--------------|
  Hold        Hold

             (Riff 1) (( 2 Times ))
e|--------------------------------------------------------------------|
B|-0-8-0-8-0-7-0-7-0-8-0-8-0-7-0-7-0-10-0-10-0-8-0-8-0-7-0-7-0-12-0-12|
G|--------------------------------------------------------------------|
D|--------------------------------------------------------------------|
A|--------------------------------------------------------------------|
E|--------------------------------------------------------------------|


            (Riff 2) x2
e|---------------------------------------------------|
B|-------------------0-8-0-8-0-7-0-7-0-8-0-8-0-7-0-7-|
G|---------------------------------------------------|
D|-1-1-1-1--1-1-1-1----------------------------------|
A|-1-1-1-1--1-1-1-1----------------------------------|
E|-0-0-0-0--0-0-0-0----------------------------------|

       The Second time you play "Riff 2" play this instead
e|-----------------------------------------------------------|
B|-------------------0-8-0-8-0-10-0-10-0-12-0-12-0-13-0-13-0-|
G|-----------------------------------------------------------|
D|-1-1-1-1--1-1-1-1------------------------------------------|
A|-1-1-1-1--1-1-1-1------------------------------------------|
E|-0-0-0-0--0-0-0-0------------------------------------------|

        Then Back to "Riff 1"
e|--------------------------------------------------------------------|
B|-0-8-0-8-0-7-0-7-0-8-0-8-0-7-0-7-0-10-0-10-0-8-0-8-0-7-0-7-0-12-0-12|
G|--------------------------------------------------------------------|
D|--------------------------------------------------------------------|
A|--------------------------------------------------------------------|
E|--------------------------------------------------------------------|

       Then the second time you play "Riff 1" play this instead
e|----------------------------------------------------------------------|
B|-0-8-0-8-0-7-0-7-0-8-0-8-0-7-0-7-0-7-0-7-0-8-0-8-0-10-0-10-0-17-0-17-0|
G|----------------------------------------------------------------------|
D|----------------------------------------------------------------------|
A|----------------------------------------------------------------------|
E|----------------------------------------------------------------------|

Play around with it some,im sure you guys can figure out the parts i missed but all in 
all this is a very good song and VERY fun to play when ur hammering on and pulling off 
like a boss :P have fun with it!

If you guys figure out any of the parts i left out send me a message or email me at 
"algorith200@yahoo.com" with the tabs to the missing parts and i will add them :)

p.s. if any of you can figure out the solo that would be helpful

                   ~Dameon (D Fizzlio)
Добавлено: 27.06.2013
Другие материалы по этой песне:
  • Аккорды и текст

Страница создана 27.06.2013
http://primanota.ru/misc-unsigned-bands/tkjn-stormfield-chords.htm
Привет, Гость.
Предлагаем пройти революционный курс по гитаре.
Подарок от PrimaNota.Ru, забирай!