PrimaNota.ru - самый крупный в мире бесплатный архив песенных текстов, аккордов, табулатур и нот


Misc Unsigned Bands - The Four Horsemen Of The Apocalypse - Heavy Metal Reign - таба

Регистрация Запомнить меня
Войти через:  Facebook Google Twitter Vk Yandex Mail.ru

Misc Unsigned Bands - The Four Horsemen Of The Apocalypse - Heavy Metal Reign - таба

Печатать
Просмотров: 56
-------------------------------------------------------------------------------
                             Heavy Metal Reign - The Four Horsemen Of The Apocalypse
-------------------------------------------------------------------------------
Tabbed by: Vaimaster
Email: tobirulez13@yahoo.com

Tuning:DGCFAD

RIFF 1:
e|-----------------------|
B|-----------------------|
G|-----------------------|
D|-----------------------|
A|2----2-----------------|
D|0-0000-0003-005-0030---|
pm  ...  ...  ..  ..

INTRO SOLO:
e|----------------------------------------------------15------15------151515|
B|---------------------13-------13-------13-12---15b16---15b16---15b16------|
G|14b15-14b15----12-14----12-14----12-14------------------------------------|
D|--------------------------------------------------------------------------|
A|--------------------------------------------------------------------------|
E|--------------------------------------------------------------------------|

e|-----151515-----151515-----------------------------------|
B|15b16------15b16-------13-------13-------13--------------|
G|--------------------------14-12----14-12----14-12-14b15--|
D|---------------------------------------------------------|
A|---------------------------------------------------------|
E|---------------------------------------------------------| END SOLO

RIFF 2:
e|-----------------|
B|-----------------|
G|-----------------|
D|----6---7---542--|
A|00004-005-00320--|
E|-----------------|
pm....  ..  ..

RIFF 3:
e|---------------------------------|
B|---------------------------------|
G|---------------------------------|
D|2-2-2-----------2-2-2------------|
A|0-0-0-3333-2222-0-0-0------------|
E|----------------------3333-2222--|
pm      .... ....       .... ....

MAIN SOLO:
e|----------12h15p12--12h17p12--12h15p12--12h17p12--12h15p12--12h17p12----|
B|------------------15--------15--------15--------15--------15--------15--|
G|------------------------------------------------------------------------|
D|------------------------------------------------------------------------|
A|2--5-4-2----------------------------------------------------------------|
E|0--3-2-0----------------------------------------------------------------|

e|12h15p12--12h17p12---1717171717171715151515121212--------12h15h17----------12h15h17-|
B|--------15--------15-----------------------------12h15h17--------12h15h17-----------|
G|------------------------------------------------------------------------------------|
D|------------------------------------------------------------------------------------|
A|------------------------------------------------------------------------------------|
E|------------------------------------------------------------------------------------|

(tapping bit)
e|t21p19p14t21p19p14t21p19p14t22p19p14t22p19p14t22p19p14-----|
B|-----------------------------------------------------------|
G|-----------------------------------------------------------|
D|-----------------------------------------------------------|
A|-----------------------------------------------------------|
E|-----------------------------------------------------------| x2

(tremolo picked)
e|22-20-19-17-15-14-12-15/---|
B|---------------------------|
G|---------------------------|
D|---------------------------|
A|---------------------------|
E|---------------------------|

RIFF 4:
e|---------|
B|---------|
G|---------|
D|--0------|
A|23--320--|
E|---------|

OUTRO PIECE
e|---------------------|
B|---------------------|
G|---------------------|
D|14---12--------------|
A|-----------12-----/0-|
E|---------------------|

SONG STRUCTURE:
RIFF 1 x4
INTRO SOLO
RIFF 1 x4
RIFF 2 x4
RIFF 3 x4
RIFF 1 x4
RIFF 2 x4
RIFF 3 x4
MAIN SOLO
RIFF 1 x4
RIFF 2 x4
RIFF 3 x4
RIFF 4 x8
OUTRO PIECE

|14b15 bend note
| /  slide up
| \  slide down
| h  hammer-on
| p  pull-off
| ~  vibrato
| +  harmonic
| pm Mute note
| t  finger tap
===============================================================================
Добавлено: 20.11.2013
Другие материалы по этой песне:
  • Аккорды и текст

Страница создана 20.11.2013
http://primanota.ru/misc-unsigned-bands/the-four-horsemen-of-the-apocalypse-heavy-metal-reign-chords.htm
Привет, Гость.
Предлагаем пройти революционный курс по гитаре.
Подарок от PrimaNota.Ru, забирай!