PrimaNota.ru - самый крупный в мире бесплатный архив песенных текстов, аккордов, табулатур и нот


Misc Unsigned Bands - The Freefallers - Freefalling Live - таба

Регистрация Запомнить меня
Войти через:  Facebook Google Twitter Vk Yandex Mail.ru

Misc Unsigned Bands - The Freefallers - Freefalling Live - таба

Печатать
Просмотров: 35
Intro:
E|--9--9--11--9--9--9--11--9--9--11--9--9--9--11--|
B|--9--9--11--9--9--9--11--9--9--11--9--9--9--11--|
G|------------------------------------------------|
D|------------------------------------------------|
A|------------------------------------------------|
E|------------------------------------------------|

Verse:
E|--------------------------------------------------------|
B|--------------------------------------------------------|
G|--------------------------------------------------0-----|
D|--------------------------------------------------0-----|
A|--------------------------------------------------------|
E|--1--1--1--1--1--1--1--1--1--1--1--1--1--1--1--1--------|

Chorus:
E|--------------------------------------------------------------------------|
B|--------------------------------------------------------------------------|
G|--------------------------------------------------------------------------|
D|--------------------------------------------------------------------------|
A|--9--9--9--9--9--9--9--9--7--7--7--7--7--7--7--7--5--5--5--5--5--5--5--5--|
E|--7--7--7--7--7--7--7--7--5--5--5--5--5--5--5--5--3--3--3--3--3--3--3--3--|

E|--------------------------|
B|--------------------------|
G|--------------------------|x2
D|--------------------------|
A|--6--6--6--6--7--7--7--7--|
E|--4--4--4--4--5--5--5--5--|

Solo:
E|------------------------13--15b17--17--17--17--17--17--17--17--17--|
B|-------------13--13h15---------------------------------------------|
G|--13--13h15--------------------------------------------------------|
D|-------------------------------------------------------------------|
A|-------------------------------------------------------------------|
E|-------------------------------------------------------------------|

E|--15--14--13------------------------------12--11--10------------------------------|
B|--------------15--14--13------------------------------12--11--10------------------|
G|--------------------------15--14--13--12w------------------------1211109w---------|
D|----------------------------------------------------------------------------------|
A|----------------------------------------------------------------------------------|
E|----------------------------------------------------------------------------------|

E|--9--8--7-----------------------|
B|-----------9--8--7--------------|
G|--------------------9--8--7--6w-|
D|--------------------------------|
A|--------------------------------|
E|--------------------------------|

E|--6--5--4-----------------------3--2--1-----------------------|
B|-----------6--5--4-----------------------3--2--1--------------|
G|--------------------6--5--4--3w-------------------3--2--1--0w-|
D|--------------------------------------------------------------|
A|--------------------------------------------------------------|
E|--------------------------------------------------------------|

E|----------------------------------------------------------------------------------|
B|----------------------------------------------------------------------------------|
G|--12--17b19--19--19--19--19w------------------------------------------------------|
D|--------------------------------------3--------3-----------3-----------------3----|
A|--------------------------------3--5--------3-----5-----3-----5--------3--5-------|
E|-----------------------------5-----------5-----------5-----------5--5-------------|

E|-----------------------12\0-----|
B|--------------------------------|
G|--------------------------------|
D|--------------------------------|
A|-----------------------------3--|
E|--5wp5wp5wp5wp5wp5wp0db------1--|

w = whammy
wp = whammy while picking the string
db = dive bomb

Order:
Intro
Verse
Chorus
Verse
Chorus
Solo
Chorus
Verse
Chorus
Outro
Добавлено: 05.11.2013
Другие материалы по этой песне:
  • Аккорды и текст

Страница создана 05.11.2013
http://primanota.ru/misc-unsigned-bands/the-freefallers-freefalling-live-chords.htm
Привет, Гость.
Предлагаем пройти революционный курс по гитаре.
Подарок от PrimaNota.Ru, забирай!