PrimaNota.ru - самый крупный в мире бесплатный архив песенных текстов, аккордов, табулатур и нот


Misc Unsigned Bands - Takeharu Ishimoto - Night Of Seclusion - таба

Регистрация Запомнить меня
Войти через:  Facebook Google Twitter Vk Yandex Mail.ru

Misc Unsigned Bands - Takeharu Ishimoto - Night Of Seclusion - таба

Печатать
Просмотров: 60
-------------------------------------------------------------------------------
                Night Of Seclusion - Takeharu Ishimoto
-------------------------------------------------------------------------------

Tabbed by: Leosten
Email: leo_lol@hotmail.com

Night Of Seclusion from Takeharu Ishimoto featured in the psp game Crisis Core : Final Fantasy 7

Takeharu Ishimoto's webpage : 

http://www.square-enix.co.jp/music/sem/page/cm/ishimoto/index.html

I like this song but I couldn't find the tab anywhere so I decided to tab it by ear, 
this is my first tab but I think it's all accurate.
I hope it could be useful for someone who's looking for this tab.
Sorry for my possible bad english coz im french.
Check the song for the rythm.

Standard tuning : EADGBe
| /  slide up
| \  slide down
| h  hammer-on
| p  pull-off
| ~  vibrato
| +  harmonic
| x  Mute note

Guitar 1: The first guitar we overhear during all the song. Basic chords.

   Asus2                    C
e|----0--0-0-0-0-0-----------0--0-0-0-0-0-------------------------------------|
B|----0--0-0-0-0-0-----------1--1-1-1-1-1-------------------------------------|
G|----0--0-0-0-0-0-|x4|------0--0-0-0-0-0-|x4|--------------------------------|
D|----2--2-2-2-2-2-----------2--2-2-2-2-2-------------------------------------|
A|----2--2-2-2-2-2-----------3--3-3-3-3-3-------------------------------------|
E|----0--0-0-0-0-0-----------0--0-0-0-0-0-------------------------------------|
         v ^ v ^ v              v ^ v ^ v
       down/up                down/up 

Guitar 2 : After the drums comes the first part of the second guitar.

Part 1 Night of seclusion's theme
e|---------------------------------------------------------------------------|
B|------------8-10-----------------------------------------------------------|
G|--4-5--5/7-------9-----7---5-------|x2|------------------------------------|
D|---------------------------------------------------------------------------|
A|---------------------------------------------------------------------------|
E|---------------------------------------------------------------------------|

Part 2
e|---------------------------------------------------------------------------|
B|---------------------------------------------------------------------------|
G|--/7---7-5-4-5---2-----/7---7-5-4-5---9----/7---7-5-4-5---2----------------|
D|---------------------------------------------------------------------------|
A|---------------------------------------------------------------------------|
E|---------------------------------------------------------------------------|

e|---------------------------------------------------------------------------|
B|---------------------------------------------------------------------------|
G|--/7---7-5-4-5---2--0------------------------------------------------------|
D|---------------------------------------------------------------------------|
A|---------------------------------------------------------------------------|
E|---------------------------------------------------------------------------|

A nice violin part then part 1 again with a little change in the beginning.

Part 1 again , a bit altered.
e|---------------------------------------------------------------------------|
B|------8-10------------------------------8-10-------------------------------|
G|--5/7--------9-----7---5-------4-5--5/7-------9-----7---5------------------|
D|---------------------------------------------------------------------------|
A|---------------------------------------------------------------------------|
E|---------------------------------------------------------------------------|

Then the part 3 instead of the part 2.

Part 3 Here comes the big one!( I'm a Zack fan ).
e|---------------------------------------------------------------------------|
B|---------------------------------------------------------------------------|
G|---------------------------------------------------------------------------|
D|--/9--7--5-7-5--4-5-4-/9--7--5-7-5--/12-12-12------|x2|--------------------|
A|---------------------------------------------------------------------------|
E|---------------------------------------------------------------------------|

-A little Break with the guitar 1 , the drums come back again then-

Part 1 x2

Part 2

-silence-

Part 1 altered , then part 1.

Part 3 x2

-violin and guitar 1 solo , drums come back again then-

Part 1 x2 to end this beautiful song.

Thanks for reading, don't hesitate to email me if there is any error 

(especially with the guitar 1 , I could have miss a part but it's probably impossible to hear).
I hope it will be useful to some crisis core fans.
===============================================================================
Добавлено: 27.11.2013
Другие материалы по этой песне:
  • Аккорды и текст

Страница создана 27.11.2013
http://primanota.ru/misc-unsigned-bands/takeharu-ishimoto-night-of-seclusion-chords.htm
Привет, Гость.
Предлагаем пройти революционный курс по гитаре.
Подарок от PrimaNota.Ru, забирай!