PrimaNota.ru - самый крупный в мире бесплатный архив песенных текстов, аккордов, табулатур и нот


Misc Unsigned Bands - Tejbz - To Tha Face - таба

Регистрация Запомнить меня
Войти через:  Facebook Google Twitter Vk Yandex Mail.ru

Misc Unsigned Bands - Tejbz - To Tha Face - таба

Печатать
Просмотров: 41
Tuning: E flat! (Eb Ab Db Gb Bb eb)

My first tab!

tejbz feat. Pierre - To Tha Face http://www.youtube.com/watch?v=m3JZjElZG2c

Awesome song help him out buy the track on iTunes like me! :D

its not hard to figure out the chords used are Eb C Bb Cb (power chords)

this is more for the lead guitar than rhythm

e|------------------------------------------5-5-5-4--|
B|--5--7--5-10-9-7---7-9-7----5--7--5-5-5-5----------|
G|------------------7-------7------------------------|
D|---------------------------------------------------|
A|---------------------------------------------------|
E|---------------------------------------------------|

(cont)
e|------------------------------------------------------------------|
B|--5--7--5-10-9-7---7-9-7----5--7--5-7-7-7-7-7-7--7-7-7-7-7--------|
G|------------------7-------7---------------------------------------|
D|------------------------------------------------------------------|
A|------------------------------------------------------------------|   x2
E|------------------------------------------------------------------|


Verse (dots for palm mute):
.   .   .   .
Eb  Cb  Bb  Db  
-x- -x- -x- -x-
-x- -x- -x- -x-
-9- -6- -4- -7-    
-9- -6- -4- -7-
-7- -4- -2- -5-
-x- -x- -x- -x-        then;
.    .   .   .
Eb  Cb  Bb  Ab 
-x- -x- -x- -x-
-x- -x- -x- -x- 
-9- -6- -4- -2-
-9- -6- -4- -2- 
-7- -4- -2- -0-
-x- -x- -x- -x- 

under this ^^^^^^ play;

e|--------------------------------------|
B|--5-5-5-4-4-4-7-7-7-4-4-4-5-5-4-4-----| 
G|--------------------------------------|
D|--------------------------------------| x2, then;
A|--------------------------------------|
E|--------------------------------------|

e|--------------------------------------|
B|--5-5-5-4-4-4-7-7-7-4-4-4-5-5-4-4-5~~-| 
G|--------------------------------------|
D|--------------------------------------| 
A|--------------------------------------|
E|--------------------------------------|

{Eb  Bb  Eb  Db  Cb  Bb  Ab (hold) then hit the strings muted }
 -x- -x- -x- -x- -x- -x- -x-            -x-
 -x- -x- -x- -x- -x- -x- -x-            -x-
 -x- -4- -9- -7- -6- -4- -2-            -x-
 -2- -4- -9- -7- -6- -4- -2-            -x-
 -2- -2- -7- -5- -4- -2- -0-            -x-
 -0- -x- -x- -x- -x- -x- -x-            -x-

behind {this}, play;  (- not writing how many times to save space and its so easy 
to figure out - same goes for chorus)

e|----------------------|
B|----------------------|
G|--9-11-16-14-13-11-9--|
D|--x--x--x--x--x--x-x--|
A|--7--9-14-12-11--9-7--|
E|----------------------|

Chorus
                      |<<<<<<<<<<<<<< or an octave on the 2nd fret A string
e|----------------------------|
B|----------------------------|
G|-16-14-13-11-13-11-16-11-9--|
D|--x--x--x--x--x--x--x--x-x--|
A|-14-12-11--9-11--9-14--9-7--|
E|----------------------------|

Link =

e|------------------5-5-5-4----------------------------|
B|----5--7--5-5-5-5----------5--7--5-10-9-7---7-9-7----|
G|------------------------------------------7-------7--|
D|-----------------------------------------------------|
A|-----------------------------------------------------|
E|-----------------------------------------------------|

Verse

Chorus

Bridge - Palm muted Eb

and these are the notes I just can't remember which order argghh!!!

B|----10-9-7-5-4-2-0-12----|

Outro:

Eb  Bb  C   Eb  Eb  Bb  C   Eb
-x- -x- -x- -x- -x- -x- -x- -x-
-x- -x- -x- -x- -x- -x- -x- -x-
-x- -4- -6- -x- -x- -4- -6- -x-
-2- -x- -x- -2- -2- -x- -x- -2-
-2- -2- -4- -2- -2- -2- -4- -2-
-0- -x- -x- -0- -0- -x- -x- -0-
Добавлено: 21.02.2014
Другие материалы по этой песне:
  • Аккорды и текст

Страница создана 21.02.2014
http://primanota.ru/misc-unsigned-bands/tejbz-to-tha-face-chords.htm
Привет, Гость.
Предлагаем пройти революционный курс по гитаре.
Подарок от PrimaNota.Ru, забирай!