PrimaNota.ru - самый крупный в мире бесплатный архив песенных текстов, аккордов, табулатур и нот


Misc Unsigned Bands - Systematic Automatic - Sailor Song - таба

Регистрация Запомнить меня
Войти через:  Facebook Google Twitter Vk Yandex Mail.ru

Misc Unsigned Bands - Systematic Automatic - Sailor Song - таба

Печатать
Просмотров: 40
Gtr I (E A D G B E) - 'Untitled'
Gtr II (E A D G B E) - 'Untitled'


    Q.=134
    D/F#         G            A            D
   6/8
    Gtr I
    Q  E E E E   Q  E E E E   Q  E E E E   Q  E E E E
||-------------|-3--3-3-3-3-|------------|-2--2-2-2-2--||
||o-3--3-3-3-3-|-3--3-3-3-3-|-2--2-2-2-2-|-3--3-3-3-3-o||
||--2--2-2-2-2-|-0--0-0-0-0-|-2--2-2-2-2-|-2--2-2-2-2--||
||--0--0-0-0-0-|-0--0-0-0-0-|-2--2-2-2-2-|-0--0-0-0-0--||
||o-0--0-0-0-0-|-2--2-2-2-2-|-0--0-0-0-0-|------------o||
||--2--2-2-2-2-|-3--3-3-3-3-|------------|-------------||


   Verse
    $
    Bm
    Gtr I
    Q  E E E E   Q  E E E E   Q  E E E E   Q  E E E E
||-------------|------------|------------|------------|
||o-3--3-3-3-3-|-3--3-3-3-3-|-3--3-3-3-3-|-3--3-3-3-3-|
||--4--4-4-4-4-|-4--4-4-4-4-|-4--4-4-4-4-|-4--4-4-4-4-|
||--4--4-4-4-4-|-4--4-4-4-4-|-4--4-4-4-4-|-4--4-4-4-4-|
||o-2--2-2-2-2-|-2--2-2-2-2-|-2--2-2-2-2-|-2--2-2-2-2-|
||-------------|------------|------------|------------|


  A                         Dsus2/A      A
  Q  E E E E   Q  E E E E   Q  E E E E   Q  E E E E
|------------|------------|------------|-------------|
|-2--2-2-2-2-|-2--2-2-2-2-|-3--3-3-3-3-|-2--2-2-2-2--|
|-2--2-2-2-2-|-2--2-2-2-2-|-2--2-2-2-2-|-2--2-2-2-2--|
|-2--2-2-2-2-|-2--2-2-2-2-|-2--2-2-2-2-|-2--2-2-2-2--|
|-0--0-0-0-0-|-0--0-0-0-0-|-0--0-0-0-0-|-0--0-0-0-0--|
|------------|------------|------------|-------------|


  G                         Em
  Q  E E E E   Q  E E E E   Q  E E E E   Q  E E E E
|-3--3-3-3-3-|-3--3-3-3-3-|------------|-------------|
|-3--3-3-3-3-|-3--3-3-3-3-|------------|-------------|
|-0--0-0-0-0-|-0--0-0-0-0-|-0--0-0-0-0-|-0--0-0-0-0--|
|-0--0-0-0-0-|-0--0-0-0-0-|-2--2-2-2-2-|-2--2-2-2-2--|
|-2--2-2-2-2-|-2--2-2-2-2-|-2--2-2-2-2-|-2--2-2-2-2--|
|-3--3-3-3-3-|-3--3-3-3-3-|-0--0-0-0-0-|-0--0-0-0-0--|


                                           To Coda
  Bm
  Q  E E E E   Q  E E E E   Q  E E E E   Q  E E E E
|------------|------------|------------|--------------||
|-3--3-3-3-3-|-3--3-3-3-3-|-3--3-3-3-3-|-3--3-3-3-3--o||
|-4--4-4-4-4-|-4--4-4-4-4-|-4--4-4-4-4-|-4--4-4-4-4---||
|-4--4-4-4-4-|-4--4-4-4-4-|-4--4-4-4-4-|-4--4-4-4-4---||
|-2--2-2-2-2-|-2--2-2-2-2-|-2--2-2-2-2-|-2--2-2-2-2--o||
|------------|------------|------------|--------------||


 Chorus 1
  Dsus2                     A
  Q  E E E E   Q  E E E E   Q  E E E E   Q  E E E E
|------------|------------|------------|-------------|
|-5--5-5-5-5-|-5--5-5-5-5-|------------|-------------|
|-7--7-7-7-7-|-7--7-7-7-7-|-6--6-6-6-6-|-6--6-6-6-6--|
|-7--7-7-7-7-|-7--7-7-7-7-|-7--7-7-7-7-|-7--7-7-7-7--|
|-5--5-5-5-5-|-5--5-5-5-5-|-7--7-7-7-7-|-7--7-7-7-7--|
|------------|------------|-5--5-5-5-5-|-5--5-5-5-5--|


  Em                        G
  Q  E E E E   Q  E E E E   Q  E E E E   Q  E E E E
|------------|------------|------------|-------------|
|-8--8-8-8-8-|-8--8-8-8-8-|------------|-------------|
|-9--9-9-9-9-|-9--9-9-9-9-|-4--4-4-4-4-|-4--4-4-4-4--|
|-9--9-9-9-9-|-9--9-9-9-9-|-5--5-5-5-5-|-5--5-5-5-5--|
|-7--7-7-7-7-|-7--7-7-7-7-|-5--5-5-5-5-|-5--5-5-5-5--|
|------------|------------|-3--3-3-3-3-|-3--3-3-3-3--|


  Dsus2                     A
  Q  E E E E   Q  E E E E   Q  E E E E   Q  E E E E
|------------|------------|------------|-------------|
|-5--5-5-5-5-|-5--5-5-5-5-|------------|-------------|
|-7--7-7-7-7-|-7--7-7-7-7-|-6--6-6-6-6-|-6--6-6-6-6--|
|-7--7-7-7-7-|-7--7-7-7-7-|-7--7-7-7-7-|-7--7-7-7-7--|
|-5--5-5-5-5-|-5--5-5-5-5-|-7--7-7-7-7-|-7--7-7-7-7--|
|------------|------------|-5--5-5-5-5-|-5--5-5-5-5--|


                                      D.S. al Coda
  Em
  Q  E E E E   Q  E E E E   Q  E E E E   E E Q  Q
|------------|------------|------------|------------||
|-8--8-8-8-8-|-8--8-8-8-8-|-8--8-8-8-8-|-8----------||
|-9--9-9-9-9-|-9--9-9-9-9-|-9--9-9-9-9-|-9----------||
|-9--9-9-9-9-|-9--9-9-9-9-|-9--9-9-9-9-|-9----------||
|-7--7-7-7-7-|-7--7-7-7-7-|-7--7-7-7-7-|-7----------||
|------------|------------|------------|------------||


   Chorus 2
    &
    Dsus2                     A
    Q  E E E E   Q  E E E E   Q  E E E E   Q  E E E E
||-------------|------------|------------|------------|
||o-5--5-5-5-5-|-5--5-5-5-5-|------------|------------|
||--7--7-7-7-7-|-7--7-7-7-7-|-6--6-6-6-6-|-6--6-6-6-6-|
||--7--7-7-7-7-|-7--7-7-7-7-|-7--7-7-7-7-|-7--7-7-7-7-|
||o-5--5-5-5-5-|-5--5-5-5-5-|-7--7-7-7-7-|-7--7-7-7-7-|
||-------------|------------|-5--5-5-5-5-|-5--5-5-5-5-|


  1.,2.,3.
  Em                        G
  Q  E E E E   Q  E E E E   Q  E E E E   Q  E E E E   4x
|------------|------------|------------|--------------||
|-8--8-8-8-8-|-8--8-8-8-8-|------------|-------------o||
|-9--9-9-9-9-|-9--9-9-9-9-|-4--4-4-4-4-|-4--4-4-4-4---||
|-9--9-9-9-9-|-9--9-9-9-9-|-5--5-5-5-5-|-5--5-5-5-5---||
|-7--7-7-7-7-|-7--7-7-7-7-|-5--5-5-5-5-|-5--5-5-5-5--o||
|------------|------------|-3--3-3-3-3-|-3--3-3-3-3---||


  4.
  Q  E E E E   Q  E E E E   Q  E E E E   E E Q  Q
|------------|------------|------------|------------||
|-8--8-8-8-8-|-8--8-8-8-8-|-8--8-8-8-8-|-8----------||
|-9--9-9-9-9-|-9--9-9-9-9-|-9--9-9-9-9-|-9----------||
|-9--9-9-9-9-|-9--9-9-9-9-|-9--9-9-9-9-|-9----------||
|-7--7-7-7-7-|-7--7-7-7-7-|-7--7-7-7-7-|-7----------||
|------------|------------|------------|------------||


 Interlude
  Q  E E E E   Q  E E E E   Q  E E E E   Q  E E E E
|------------|-3--3-3-3-3-|------------|-2--2-2-2-2--|
|-3--3-3-3-3-|-3--3-3-3-3-|-2--2-2-2-2-|-3--3-3-3-3--|
|-2--2-2-2-2-|-0--0-0-0-0-|-2--2-2-2-2-|-2--2-2-2-2--|
|-0--0-0-0-0-|-0--0-0-0-0-|-2--2-2-2-2-|-0--0-0-0-0--|
|-0--0-0-0-0-|-2--2-2-2-2-|-0--0-0-0-0-|-------------|
|-2--2-2-2-2-|-3--3-3-3-3-|------------|-------------|


  Q  E E E E   Q  E E E E   Q  E E E E   Q.   E Q
|------------|-3--3-3-3-3-|------------|-2----2-----||
|-3--3-3-3-3-|-3--3-3-3-3-|-2--2-2-2-2-|-3----3-----||
|-2--2-2-2-2-|-0--0-0-0-0-|-2--2-2-2-2-|-2----2-----||
|-0--0-0-0-0-|-0--0-0-0-0-|-2--2-2-2-2-|-0----0-----||
|-0--0-0-0-0-|-2--2-2-2-2-|-0--0-0-0-0-|------------||
|-2--2-2-2-2-|-3--3-3-3-3-|------------|------------||


 Bridge
     PM----|      PM----|      PM----|      PM----|
  Q  E E E E   Q  E E E E   Q  E E E E   Q  E E E E
|------------|------------|------------|-------------|
|------------|------------|------------|-------------|
|------------|------------|------------|-------------|
|-4----------|-4----------|-4----------|-4-----------|
|-2--2-2-2-2-|-2--2-2-2-2-|-2--2-2-2-2-|-2--2-2-2-2--|
|------------|------------|------------|-------------|


     PM----|      PM----|      PM----|      PM----|
  Q  E E E E   Q  E E E E   Q  E E E E   Q  E E E E
|------------|------------|------------|-------------|
|------------|------------|------------|-------------|
|------------|------------|------------|-------------|
|-4----------|-4----------|-4----------|-4-----------|
|-2--2-2-2-2-|-2--2-2-2-2-|-2--2-2-2-2-|-2--2-2-2-2--|
|------------|------------|------------|-------------|


    Bm
    E E E E E E   E E E E E E   E E E E E E   E E E E E E  3x
||--------------|-------------|-------------|--------------||
||o-3-3-3-3-3-3-|-7-7-7-7-7-7-|-5-5-5-5-5-5-|-3-3-3-3-3-3-o||
||--4-4-4-4-4-4-|-7-7-7-7-7-7-|-6-6-6-6-6-6-|-4-4-4-4-4-4--||
||--------------|-------------|-------------|--------------||
||o-------------|-------------|-------------|-------------o||
||--------------|-------------|-------------|--------------||


  E E E E E E   E E E E E E   E E E E E E   E E E E E E
|-------------|-------------|-------------|--------------|
|-3-3-3-3-3-3-|-3-3-3-3-3-3-|-2-2-2-2-2-2-|-2-2-2-2-2-2--|
|-4-4-4-4-4-4-|-4-4-4-4-4-4-|-2-2-2-2-2-2-|-2-2-2-2-2-2--|
|-------------|-------------|-------------|--------------|
|-------------|-------------|-------------|--------------|
|-------------|-------------|-------------|--------------|


    Gtr I
    E E E E E E    E  E  E  E  E  E   E E E E E E   E E E E E E  3x
||--------------|-------------------|-------------|--------------||
||o-3-3-3-3-3-3-|--7--7--7--7--7--7-|-5-5-5-5-5-5-|-3-3-3-3-3-3-o||
||--4-4-4-4-4-4-|--7--7--7--7--7--7-|-6-6-6-6-6-6-|-4-4-4-4-4-4--||
||--------------|-------------------|-------------|--------------||
||o-------------|-------------------|-------------|-------------o||
||--------------|-------------------|-------------|--------------||
|
|   Gtr II
|   E E E E E E    E  E  E  E  E  E   E E E E E E   E E E E E E  3x
||--7-7-7-7-7-7-|-10-10-10-10-10-10-|-5-5-5-5-5-5-|-7-7-7-7-7-7--||
||o-7-7-7-7-7-7-|-10-10-10-10-10-10-|-5-5-5-5-5-5-|-7-7-7-7-7-7-o||
||--------------|-------------------|-------------|--------------||
||--------------|-------------------|-------------|--------------||
||o-------------|-------------------|-------------|-------------o||
||--------------|-------------------|-------------|--------------||


  E E E E E E   E E E E E E   E E E E E E   E E E E E E
|-------------|-------------|-------------|--------------||
|-3-3-3-3-3-3-|-3-3-3-3-3-3-|-2-2-2-2-2-2-|-2-2-2-2-2-2--||
|-4-4-4-4-4-4-|-4-4-4-4-4-4-|-2-2-2-2-2-2-|-2-2-2-2-2-2--||
|-------------|-------------|-------------|--------------||
|-------------|-------------|-------------|--------------||
|-------------|-------------|-------------|--------------||
|
| E E E E E E   E E E E E E   E E E E E E   E E E E E E
|-5-5-5-5-5-5-|-3-3-3-3-3-3-|-5-5-5-5-5-5-|-7-7-7-7-7-7--||
|-5-5-5-5-5-5-|-3-3-3-3-3-3-|-5-5-5-5-5-5-|-7-7-7-7-7-7--||
|-------------|-------------|-------------|--------------||
|-------------|-------------|-------------|--------------||
|-------------|-------------|-------------|--------------||
|-------------|-------------|-------------|--------------||


   Verse
    Q      E   E   E   E     Q       E   E   E   E
||------------------------|-------------------------|
||o-3------3---3---3---3--|--3-------3---3---3---3--|
||--4------4---4---4---4--|--4-------4---4---4---4--|
||--4------4---4---4---4--|--4-------4---4---4---4--|
||o-2------2---2---2---2--|--2-------2---2---2---2--|
||------------------------|-------------------------|
|
|   E  E   E   E   E   E     E   E   E   E   E   E
||--7-(7)-(7)-(7)-(7)-(7)-|-(7)-(7)-(7)-(7)-(7)-(7)-|
||o-7-(7)-(7)-(7)-(7)-(7)-|-(7)-(7)-(7)-(7)-(7)-(7)-|
||------------------------|-------------------------|
||------------------------|-------------------------|
||o-----------------------|-------------------------|
||------------------------|-------------------------|


   Q       E   E   E   E     Q       E   E   E   E
|-------------------------|-------------------------|
|--3-------3---3---3---3--|--3-------3---3---3---3--|
|--4-------4---4---4---4--|--4-------4---4---4---4--|
|--4-------4---4---4---4--|--4-------4---4---4---4--|
|--2-------2---2---2---2--|--2-------2---2---2---2--|
|-------------------------|-------------------------|
|
|  >                         >
|  E   E   E   E   E   E     E   E   E   E   E   E
|-(7)-(7)-(7)-(7)-(7)-(7)-|-(7)-(7)-(7)-(7)-(7)-(7)-|
|-(7)-(7)-(7)-(7)-(7)-(7)-|-(7)-(7)-(7)-(7)-(7)-(7)-|
|-------------------------|-------------------------|
|-------------------------|-------------------------|
|-------------------------|-------------------------|
|-------------------------|-------------------------|


  Q  E E E E   Q  E E E E   Q  E E E E   Q  E E E E
|------------|------------|------------|-------------|
|-2--2-2-2-2-|-2--2-2-2-2-|-3--3-3-3-3-|-2--2-2-2-2--|
|-2--2-2-2-2-|-2--2-2-2-2-|-2--2-2-2-2-|-2--2-2-2-2--|
|-2--2-2-2-2-|-2--2-2-2-2-|-2--2-2-2-2-|-2--2-2-2-2--|
|-0--0-0-0-0-|-0--0-0-0-0-|-0--0-0-0-0-|-0--0-0-0-0--|
|------------|------------|------------|-------------|


  Q  E E E E   Q  E E E E   Q  E E E E   Q  E E E E
|-3--3-3-3-3-|-3--3-3-3-3-|------------|-------------|
|-3--3-3-3-3-|-3--3-3-3-3-|------------|-------------|
|-0--0-0-0-0-|-0--0-0-0-0-|-0--0-0-0-0-|-0--0-0-0-0--|
|-0--0-0-0-0-|-0--0-0-0-0-|-2--2-2-2-2-|-2--2-2-2-2--|
|-2--2-2-2-2-|-2--2-2-2-2-|-2--2-2-2-2-|-2--2-2-2-2--|
|-3--3-3-3-3-|-3--3-3-3-3-|-0--0-0-0-0-|-0--0-0-0-0--|


  1.
  Q  E E E E   Q  E E E E   Q  E E E E   Q  E E E E
|------------|------------|------------|--------------||
|-3--3-3-3-3-|-3--3-3-3-3-|-3--3-3-3-3-|-3--3-3-3-3--o||
|-4--4-4-4-4-|-4--4-4-4-4-|-4--4-4-4-4-|-4--4-4-4-4---||
|-4--4-4-4-4-|-4--4-4-4-4-|-4--4-4-4-4-|-4--4-4-4-4---||
|-2--2-2-2-2-|-2--2-2-2-2-|-2--2-2-2-2-|-2--2-2-2-2--o||
|------------|------------|------------|--------------||


  2.
  H    E E   H    E E   E E E E E E   E E Q  Q
|----------|----------|-------------|------------||
|----------|----------|-------------|------------||
|----------|----------|-------------|------------||
|----------|------7-8-|-9-8-7-------|------------||
|------7-8-|-9--------|-------9-7-5-|------------||
|-7--------|----------|-------------|-7----------||


 Outro
  Q  E E E E   Q  E E E E   Q  E E E E   Q  E E E E
|------------|-3--3-3-3-3-|------------|-2--2-2-2-2--|
|-3--3-3-3-3-|-3--3-3-3-3-|-2--2-2-2-2-|-3--3-3-3-3--|
|-2--2-2-2-2-|-0--0-0-0-0-|-2--2-2-2-2-|-2--2-2-2-2--|
|-0--0-0-0-0-|-0--0-0-0-0-|-2--2-2-2-2-|-0--0-0-0-0--|
|-0--0-0-0-0-|-2--2-2-2-2-|-0--0-0-0-0-|-------------|
|-2--2-2-2-2-|-3--3-3-3-3-|------------|-------------|


  Q  E E E E   Q  E E E E   Q  E E E E   Q  Q  Q
|------------|-3--3-3-3-3-|------------|-2---------*|
|-3--3-3-3-3-|-3--3-3-3-3-|-2--2-2-2-2-|-3---------*|
|-2--2-2-2-2-|-0--0-0-0-0-|-2--2-2-2-2-|-2---------*|
|-0--0-0-0-0-|-0--0-0-0-0-|-2--2-2-2-2-|-0---------*|
|-0--0-0-0-0-|-2--2-2-2-2-|-0--0-0-0-0-|-----------*|
|-2--2-2-2-2-|-3--3-3-3-3-|------------|-----------*|




--------------------------------------------------------------------------------


Duration Legend
---------------
W - whole; H - half; Q - quarter; E - 8th; S - 16th; T - 32nd; X - 64th; a - acciaccatura
+ - note tied to previous; . - note dotted; .. - note double dotted
Uncapitalized letters represent notes that are staccato (1/2 duration)
Irregular groupings are notated above the duration line
Duration letters will always appear directly above the note/fret number it represents the
duration for.  Duration letters with no fret number below them represent rests.  Multi-
bar rests are notated in the form Wxn, where n is the number of bars to rest for.  Low
melody durations appear below the staff

Tablature Legend
----------------
 h   - hammer-on
 p   - pull-off
 b   - bend
 pb  - pre-bend
 r   - bend release (if no number after the r, then release immediately)
 /\  - slide into or out of (from/to "nowhere")
 s   - legato slide
 S   - shift slide
 - natural harmonic
[n]  - artificial harmonic
n(n) - tapped harmonic
 ~   - vibrato
 tr  - trill
 T   - tap
 TP  - trem. picking
 PM  - palm muting
\n/  - tremolo bar dip; n = amount to dip
 \n  - tremolo bar down
 n/  - tremolo bar up
/n\  - tremolo bar inverted dip
 =   - hold bend; also acts as connecting device for hammers/pulls
 <> - volume swell (louder/softer)
 x   - on rhythm slash represents muted slash
 o   - on rhythm slash represents single note slash

Misc Legend
-----------
 |  - bar
||  - double bar
||o - repeat start
o|| - repeat end
*|  - double bar (ending)
 :  - bar (freetime)
 $  - Segno
 &  - Coda
Tempo markers -  = BPM(8/16=s8/s16), where s8 = swing 8ths, s16 = swing 16ths



--------------------------------------------------------------------------------


Добавлено: 17.08.2013
Другие материалы по этой песне:
  • Аккорды и текст

Страница создана 17.08.2013
http://primanota.ru/misc-unsigned-bands/systematic-automatic-sailor-song-chords.htm
Привет, Гость.
Предлагаем пройти революционный курс по гитаре.
Подарок от PrimaNota.Ru, забирай!