PrimaNota.ru - самый крупный в мире бесплатный архив песенных текстов, аккордов, табулатур и нот


Misc Unsigned Bands - Taintstick - Applejuice - таба

Регистрация Запомнить меня
Войти через:  Facebook Google Twitter Vk Yandex Mail.ru

Misc Unsigned Bands - Taintstick - Applejuice - таба

Печатать
Просмотров: 33
taintstick applejuice. heard from the jason ellis show. or on theyre myspace.
myspace.com/tonyhawkstaintstick.

its in standard tuning:eadgbe.

this is just my version. there could be other ways.
im pretty sure its fully correct.
there are only 3 parts to this song.

PART 1: INTRO AND VERSE AND ENDING.
play twice then Hey Dude! Youre cool.
e------------------------------------|
b------------------------------------|
g----9---9--9---9---9--9---9---9--9--|
d--10--10-10--10--10-10--10--10-10---|
a-----------------------0---0--------|
e-8---8------7---7-------------------|

PART 2: CHORUS (distortion)
do you like parties and beer? and what ill do to you.
e-------------------------------------|
b-------------------------------------|
g-5-54-42-2---------------------------|
d-5-54-42-23--------------------------|
a-3-32-20-03--------------------------|
e----------1--------------------------|

PART 3: the solo in the last part of the song.

e-13------13------13------16141314---|
b---141314--141314--141314-----------|
g------------------------------------|
d------------------------------------|
a------------------------------------|
e------------------------------------|
cont'd.
e-1413--131413--131413--131614131413---|
b-----14------14------14---------------|
g--------------------------------------|
d--------------------------------------|
a--------------------------------------|
e--------------------------------------|
Dude, youre so cool.
e------------------------------------|
b------------------------------------|
g----9---9--9---9---9--9---9---9--9--|
d--10--10-10--10--10-10--10--10-10---|
a-----------------------0---0--------|
e-8---8------7---7-------------------|
Добавлено: 20.10.2013
Другие материалы по этой песне:
  • Аккорды и текст

Страница создана 20.10.2013
http://primanota.ru/misc-unsigned-bands/taintstick-applejuice-chords.htm
Привет, Гость.
Предлагаем пройти революционный курс по гитаре.
Подарок от PrimaNota.Ru, забирай!