PrimaNota.ru - самый крупный в мире бесплатный архив песенных текстов, аккордов, табулатур и нот


Misc Unsigned Bands - State Of Error - The Revolution - таба

Регистрация Запомнить меня
Войти через:  Facebook Google Twitter Vk Yandex Mail.ru

Misc Unsigned Bands - State Of Error - The Revolution - таба

Печатать
Просмотров: 39
Search 'state of error - the revolution'
in youtube/Google to listen to the revolution free,
or Buy the revolution or other tracks from the old E.P.

P     = Pull off
H     = Hammer on
/     = Slide up
\     = Slide down
x     = Mute String / Rake pick
~     = Vibrato
PM    = Palm Mute
FB    = Fast Bend
/(15) = Slide to fret in bracket but don't strum note

Intro

  Guitar 1

E|--------------------------------------------------------------------------|
B|--------------------------------------------------------------------------|
G|--7--7--10--7--7--10--7--7--10--7--7--10--7--7--10--7--7--7--10--7--7--10-|
D|--0--0--0---0--0--0---0--0--0---0--0--0---0--0--0---0--8--8--8---8--8--8--|
A|--------------------------------------------------------------------------|
E|--------------------------------------------------------------------------|
   |_PM_|    |____|    |____|    |____|    |____|       |____|    |____|

  --------------------------------------------------------------------------|
  --------------------------------------------------------------------------|
  -7--7--10--7--7--10--7--7--10--7--7--7--10--7--7--10--7--7--10--7--7--10--|
  -8--8--8---8--8--8---8--8--8---8--10-10-10--10-10-10--10-10-10--10-10-10--|
  --------------------------------------------------------------------------|
  --------------------------------------------------------------------------|
  |____|    |____|    |____|       |_____|   |_____|   |_____|   |_____|

  ---------------------------------------------------------------|----------|
  ---------------------------------------------------------------|----------|
  -7--7--10--7--7--7--10--7--7--10--7--9----10--9--7--9--7--6----|----------|
  -10-10-10--10-7--7--7---7--7--7---7----------------------------|----------|
  ---------------------------------------------------------------|----------|
  ---------------------------------------------------------------|----------|
  |_____|      |____|    |____|    |_|

  Guitar 2

  -----------------------------------------------------------|
  ---------10----10-8-10-11----11-10-8-6----6-8-6-5--\--2----|
  ----9------------------------------------------------------|
  ----7------------------------------------------------------|
  ----7------------------------------------------------------|
  -----------------------------------------------------------|


Verses

  Guitar 1
                                                        x2
  ------------------------------------------------------|----|
  ------------------------------------------------------|----|
  --7-7-7-7---------------------------------------------|----|
  --7-7-7-7--7-8---10-10-10-10-x-10----7---8-7-5-7-5-3--|----|
  --5-5-5-5--7-8---10-10-10-10-x-10---------------------|----|
  -----------5-6---8--8--8--8--x-8----------------------|----|

                                                        x2
  ------------------------------------------------------|----|
  ------------------------------------------------------|----|
  --7-7-7-7---------------------------------------------|----|
  --7-7-7-7--7-8---10-10-10-10-x-10---------------------|----|
  --5-5-5-5--7-8---10-10-10-10-x-10---------------------|----|
  -----------5-6---8--8--8--8--x-8-----5---6-5-3-5-3-1--|----|


  Guitar 2
                                                        x4
  ------------------------------------------------------|----|
  ------------------------------------------------------|----|
  --7-7-7-7---------------------------------------------|----|
  --7-7-7-7--7-8---10-10-10-10-x-10---------------------|----|
  --5-5-5-5--7-8---10-10-10-10-x-10---------------------|----|
  -----------5-6---8--8--8--8--x-8-----5---6-5-3-5-3-1--|----|


Pre-Chorus

  Guitar 1
  (Palm Mute every note on the 'D-String)

  --------------------------------------------------------------|
  ------6---8p6---6--------6---8p6---6----------8----10p8----8--|
  --------------------------------------------------------------|
PM--8-8---8-----8------8-8---8-----8------10-10---10------10----|
  --------------------------------------------------------------|
  --------------------------------------------------------------|


  --------------------------------------------------------------|
  --------8----10p8----8--------6---8p6---6--------6---8p6---6--|
  --------------------------------------------------------------|
PM--10-10---10------10------8-8---8-----8------8-8---8-----8----|
  --------------------------------------------------------------|
  --------------------------------------------------------------|


  --------------------------------------------------|
  --------8----10p8----8----------9----11p9----9----|
  --------------------------------------------------|
PM--10-10---10------10------11-11---11------11------|
  --------------------------------------------------|
  --------------------------------------------------|


  Guitar 2

  --------------------------------------------------|
  --------------------------------------------------|
  --3--------5--------3--------55555555-66666666----|
  --3--------5--------3--------55555555-66666666----|
  --1--------3--------1--------33333333-44444444----|
  --------------------------------------------------|


Chorus

  -----------------------------------------------------------------------|
  -----------------------------------------------------------------------|
  --7777777777777777-----------------------------------5555555555555555--|
  --7777777777777777-8888888888888888-3333333333333333-5555555555555555--|
  --5555555555555555-8888888888888888-3333333333333333-3333333333333333--|
  -------------------6666666666666666-1111111111111111-------------------|


  ------------------------------------------------------------------------|
  ------------------------------------------------------------------------|
  --77-7--7--77-7777-----------------------------------55555555-66666666--|
  --77-7--7--77-7777-8888888888888888-3333333333333333--------------------|
  --55-5--5--55-5555-8888888888888888-3333333333333333-33333333-44444444--|
  -------------------6666666666666666-1111111111111111--------------------|
   |_PM_|

Verse 2
Pre-chorus
Chorus

Solo (z-vex fuzz)

          ~~~~~                  ~~~~                 ~~~~
  -----------------------------------------------------------------|
  -----------------------------------------------------------------|
  --------14----12----12-------------------------------------------|
  ------x----------15---------------------15-------------------15--|
  ----x------------------13/(15)-13----13-----15/(17)-15----15-----|
  --x--------------------------------------------------------------|

                                                   ~~~~~
  -----------------------------------------------------------------|
  -----------------------------------------------------------------|
  ------------15--14--12h14p12-10h12p10-9----------14----12----12--|
  ---------17------------------------------------x----------15-----|
  --16-19--------------------------------------x-------------------|
  -------------------------------------------x---------------------|


  --------------------------------------------------------------------------|
  -----------15-------------------------------------------------------------|
  --14fb(15)----(15)--14p12h14p12-10h12p10-12fb(14)-x-12p10h12p10--9--6--7--|
  --------------------------------------------------------------------------|
  --------------------------------------------------------------------------|
  --------------------------------------------------------------------------|


Bridge
                              x3
  ----------------------------|----------------------------|
  ----------------------------|----------------------------|
  --7--7--7--7--10--10--7--7--|--7--7--7--7--10--10--10p7--|
  --0--0--0--0--0---0---0--0--|--0--0--0--0--0---0---0-----|
  ----------------------------|----------------------------|
  ----------------------------|----------------------------|
   |_PM_|   |_|    |__|   |_|   |____|   |_|    |__|

                              x3
  ----------------------------|----------------------------|
  ----------------------------|----------------------------|
  --7--7--7--7--10--10--7--7--|--9----10--9--7--9--7--6----|
  --0--0--0--0--0---0---0--0--|----------------------------|
  ----------------------------|----------------------------|
  ----------------------------|----------------------------|
   |____|   |_|    |__|   |_|


Pre-Chorus
Chorus x2

Octave Chorus Riff (on 2nd time round)

  -x-x-x-x------------------------------------------------------------------|
  -x-x-x-x------------------------------------------------------------------|
  -x-x-x-x-10-10-10-10-10-10-10-10-10-10-10-10-10-10-10-10--9-9-9-9-9-9-9-9-|
  -x-x-x-x------------------------------------------------------------------|
  -x-x-x-x-8--8--8--8--8--8--8--8--8--8--8--8--8--8--8--8---7-7-7-7-7-7-7-7-|
  -x-x-x-x------------------------------------------------------------------|


  ---------------------------------------------------------------------|
  ---------------------------------------------------------------------|
  -10-10-10--12-12-12--14-14-14-14-14-14-14-14-14-14-14-14-14-14-14-14-|
  ---------------------------------------------------------------------|
  -8--8--8---9--9--9---12-12-12-12-12-12-12-12-12-12-12-12-12-12-12-12-|
  ---------------------------------------------------------------------|


  -------------------------------------------------------------------------|
  -------------------------------------------------------------------------|
  -12-12-12-12-12-12-12-12--14-14-14--15-15-15--17-17-17-17-17-17-17-17-17-|
  -------------------------------------------------------------------------|
  -10-10-10-10-10-10-10-10--12-12-12--13-13-13--15-15-15-15-15-15-15-15-15-|
  -------------------------------------------------------------------------|


  --------------------------------------------------------------------|
  --------------------------------------------------------------------|
  -17-17-17-17-17-17-17--15-15-15-15-15-15-15-15--14-14-14--12-12-12--|
  --------------------------------------------------------------------|
  -15-15-15-15-15-15-15--13-13-13-13-13-13-13-13--12-12-12--10-10-10--|
  --------------------------------------------------------------------|


  -------------------------------------------------------------------------|
  -------------------------------------------------------------------------|
  -17-17-17-17-17-17-17-17-17-17-17-17-17-17-17-17-17-17-17-17-17-17-17-17-|
  -------------------------------------------------------------------------|
  -15-15-15-15-15-15-15-15-15-15-15-15-15-15-15-15-15-15-15-15-15-15-15-15-|
  -------------------------------------------------------------------------|


  -----------------------|----|
  -----------------------|----|
  -18-18-18--21-21-21----|----|
  -----------------------|----|
  -16-16-16--19-19-19----|----|
  -----------------------|----|


Ending (Acoustic Chords)

     Dm        B        F        C       Dm

  ----1--------1--------1--------0--------1--------|
  ----3--------1--------1--------1--------3--------|
  ----2--------3--------2--------0--------2--------|
  ----0--------3--------3--------2--------0--------|
  -------------1--------3--------3-----------------|
  -------------------------------------------------|
Добавлено: 03.11.2013
Другие материалы по этой песне:
  • Аккорды и текст

Страница создана 03.11.2013
http://primanota.ru/misc-unsigned-bands/state-of-error-the-revolution-chords.htm
Привет, Гость.
Предлагаем пройти революционный курс по гитаре.
Подарок от PrimaNota.Ru, забирай!