PrimaNota.ru - самый крупный в мире бесплатный архив песенных текстов, аккордов, табулатур и нот


Misc Unsigned Bands - Stephen Jerzak - Together With The Sundown - таба

Регистрация Запомнить меня
Войти через:  Facebook Google Twitter Vk Yandex Mail.ru

Misc Unsigned Bands - Stephen Jerzak - Together With The Sundown - таба

Печатать
Просмотров: 44
Уроки эстрадного вокала в Санкт-Петербурге
This is just my way of playing the song.
might not be right, but it sounds pretty close to me.
i dont know the names for a few of the chords, so i just gave them a random chord name 
so you can tell them apart.

Chords:
    E         Bm      A
e|-0-| |-0-| |-0-|
B|-0-| |-0-| |-0-|
G|-9-| |-9-| |-6-|
D|-9-| |-9-| |-6-|
A|-7-| |-6-| |-4-|
E|-0-| |-0-| |-0-|


Optional:
you can fingerpick this if you want.
its not the actual one from the song, but it works just fine.
fingerpick from the beginning, but start strumming as soon as it hits the chorus.

e|-----------------------------------|
B|-----------------------------------|
G|-----9-------9-------9--------9----|
D|---9---9---9---9---9---9----9---9--|
A|-7-------7-------7--------7--------|
E|-----------------------------------|

e|-----------------------------------|
B|-----------------------------------|
G|-----9-------9-------9-------9-----|
D|---9---9---9---9---9---9---9---9---|
A|-6-------6-------6-------6---------|
E|-----------------------------------|

e|-----------------------------------|
B|-----------------------------------|
G|-----6-------6-------6-------6-----|
D|---6---6---6---6---6---6---6---6---|
A|-4-------4-------4-------4---------|
E|-----------------------------------|

e|-----------------------------------|
B|-----------------------------------|
G|-----9-------9-------9--------9----|
D|---9---9---9---9---9---9----9---9--|
A|-7-------7-------7--------7--------|
E|-----------------------------------|


E.
I don't even know
Bm
I've never felt this way before
A                                        E
But with someone like you, it makes sense.
E
And I don't wanna go,
Bm
I'll stay with you forever
A                            E
just as long as you love me too
A                            E
just as long as you love me too.

E
It's the way that you talk
          Bm
and the way that you smile
        A                             E
and the way that you love black and white.
E                                  Bm
Baby it's the way that you hold my hand in the car
          A                      E
and the way that we lie in the sand


E
It's not that hard to see
Bm
That a single day without you could 
A            E
make me go crazy.
E
It takes my breath away
Bm
it gives me butterflies,
           A                  E
when you hold me when you sleep.
           A                 E
when you hold me in your sleep.
A                    E
I never want to leave.

E
It's the way that you talk
          Bm
and the way that you smile
        A                             E
and the way that you love black and white.
E                                  Bm
Baby it's the way that you hold my hand in the car
           A                      E
and the way that we lie in the sand
           A                  E
And we watched the sun go down.

E
It's the way that you talk
          Bm
and the way that you smile
        A                             E
and the way that you love black and white.
E                                  Bm
Baby it's the way that you hold my hand in the car
           A                      E
and the way that we lie in the sand
           A                  E
And we watched the sun go down.
        
Добавлено: 28.01.2014
Другие материалы по этой песне:
  • Аккорды и текст

Страница создана 28.01.2014
http://primanota.ru/misc-unsigned-bands/stephen-jerzak-together-with-the-sundown-chords.htm
Привет, Гость.
Предлагаем пройти революционный курс по гитаре.
Подарок от PrimaNota.Ru, забирай!