PrimaNota.ru - самый крупный в мире бесплатный архив песенных текстов, аккордов, табулатур и нот


Misc Unsigned Bands - Sleipnir - Alkoholiker - таба

Регистрация Запомнить меня
Войти через:  Facebook Google Twitter Vk Yandex Mail.ru

Misc Unsigned Bands - Sleipnir - Alkoholiker - таба

Печатать
Просмотров: 74
Title: Alkoholiker
Artist: Sleipnir
Tuning: Standard
Tabbed by: Maximilian S.

~ = let ring

###################INTRO:
                                       x3
e|-------------------------------------||  
B|-------------------------------------||
G|-------------------------------------||
D|-----0--------0--------0------0---0--||
A|---5---5----4---4----2------4---4----||
E|-7--------5--------3------5----------||

                        x1
e|----------------------||
B|----------------------||
G|----------------------||
D|-----0-------0--------||
A|---5---5---4---4------||
E|-7-------5-------3~~~-||

########################VERSE:
                                     x7
e|-----------------------------------|| Gestern war ich in der Kneipe, 
B|-----------------------------------|| einfach einen trinken gehen. 
G|-----------------------------------|| Einfach weg von zuhause,
D|-----0-------0-------0-------0-----|| die Plagen nicht mehr sehen.
A|---5---5---4---4---2---2---4---4---|| St
Добавлено: 21.08.2013
Другие материалы по этой песне:
  • Аккорды и текст

Страница создана 21.08.2013
http://primanota.ru/misc-unsigned-bands/sleipnir-alkoholiker-chords.htm
Привет, Гость.
Предлагаем пройти революционный курс по гитаре.
Подарок от PrimaNota.Ru, забирай!