PrimaNota.ru - самый крупный в мире бесплатный архив песенных текстов, аккордов, табулатур и нот


Misc Unsigned Bands - Smosh - Hardcore Max - таба

Регистрация Запомнить меня
Войти через:  Facebook Google Twitter Vk Yandex Mail.ru

Misc Unsigned Bands - Smosh - Hardcore Max - таба

Печатать
Просмотров: 78
Уроки эстрадного вокала в Санкт-Петербурге
Please read description first.

Well, This is my first tab, and since theres pretty much no way to learn this, i had to
it by ear. Many people wanted a tab for it, so i gave it a go. Sorry i'm bad at the
but if you play with the song you'll do fine. Some may ask, Why Drop D? Well because, it 
power chords more easy and efficient, and its more hardcore..LIKE MAX! Please point out
mistakes too.

One last thing, at the verse, you may be confused by all those notes, well if you listen
closely to the music, that is in fact how it goes.

Intro (When Guitar Enters)
|--------------------|
|--------------------|\
|--------------------| \ X 6 Times
|-7--7----10-10---8--| /
|-7--7----10-10---8--|/
|-7--7----10-10---8--|


|---------------------|
|---------------------|\
|---------------------| \ Play This Riff Twice
|-7--7----10-10---5--6| /
|-7--7----10-10---5--6|/
|-7--7----10-10---5--6|

Verse

|----------------------------------------------|
|----------------------------------------------|\
|----------------------------------------------| \ Play Until Hardcore Part
|-5---7--7--5--5---7----7--5--7----------------| /
|-5---7--7--5--5---7----7--5--7-----0--4-4-4-5-|/
|-5---7--7--5--5---7----7--5--7----------------|


HARDCORE-NESS!
(This Part Is Optional, If You Do Play, Play Along With The Bass)

|------------------------------------------------------------|
|------------------------------------------------------------|
|------------------------------------------------------------|
|-7-7--7---7-7-7--7-7--7---7-7-7--7-7---7--7-7-7--7-7----5--8|
|-7-7--7---7-7-7--7-7--7---7-7-7--7-7---7--7-7-7--7-7----5--8|
|-7-7--7---7-7-7--7-7--7---7-7-7--7-7---7--7-7-7--7-7----5--8|


Bridge
(Once again, Optional, Its just normal picking, Fallow The Music)
I'm not exactly sure of the picking here, but you can almost do anything here,or not do
at all, be like maxand be HARDCORE!
|-----------------------------------------|
|-----------------------------------------|\
|--9--7-7-7--9--7-7---9---7-7-7---9--7-7-7| \ Repeat Until "Coma" Part
|-----------------------------------------| /
|-----------------------------------------|/
|-----------------------------------------|


Coma
Repeat Until The End Of The Song

|---------------------------------------------------------------------------|
|---------------------------------------------------------------------------|
|---------------------------------------------------------------------------|
|-3-3-3-3-3-3-3-3--5-5-5-5-5-5-5-5--7-7-7-7-7-7-7-7-7-7-7-7--7-7--5-5-------|
|-3-3-3-3-3-3-3-3--5-5-5-5-5-5-5-5--7-7-7-7-7-7-7-7-7-7-7-7--7-7--5-5-------|
|-3-3-3-3-3-3-3-3--5-5-5-5-5-5-5-5--7-7-7-7-7-7-7-7-7-7-7-7--7-7--5-5-------|
     (8 Notes)        (8 Notes)             (12 Notes)
Добавлено: 17.12.2013
Другие материалы по этой песне:
  • Аккорды и текст

Страница создана 17.12.2013
http://primanota.ru/misc-unsigned-bands/smosh-hardcore-max-chords.htm
Привет, Гость.
Предлагаем пройти революционный курс по гитаре.
Подарок от PrimaNota.Ru, забирай!