PrimaNota.ru - самый крупный в мире бесплатный архив песенных текстов, аккордов, табулатур и нот


Misc Unsigned Bands - Terabrite - Safe Sound - бас-таба

Регистрация Запомнить меня
Войти через:  Facebook Google Twitter Vk Yandex Mail.ru

Misc Unsigned Bands - Terabrite - Safe Sound - бас-таба

Печатать
Просмотров: 53
TERABRITE - SAFE & SOUND
(Taylor Swift ft Civil Wars cover)

INTRO PART 1
G|-------------|
D|-------------|
A|-0x-0x-0x-0x-| x8
E|-------------|

INTRO PART 2
G|-22222222-|----------|----------|----------|
D|----------|-22222222-|----------|----------|
A|----------|----------|-33333333-|----------| x2
E|----------|----------|----------|-33333333-|

VERSE 1
(I remember tears...)
G|------|-|-|-------|
D|------|-|-|-------|
A|-00---|-|-|-------|
E|------|-|-|--3-33-|

(All those shadows...)
G|----|-|-|-|
D|----|-|-|-|
A|----|-|-|-|
E|-5/-|-|-|-|

(I remember you said...)
G|----------|----------|----------|----------|
D|----------|----------|----------|----------|
A|----------|----------|-33333333-|----------|
E|-55555555-|-33333333-|----------|-00000000-|

(But all that's dead...)
G|----------|----------|-|-|
D|----------|----------|-|-|
A|----------|----------|-|-|
E|-55555555-|-33333333-|-|-|

CHORUS 1
(Just close your eyes...)
G|---------|---------|---------|---------|
D|---------|---------|---------|---------|
A|-33-3-33-|-33-3-33-|---------|-55-5-55-|
E|---------|---------|-33-3-33-|---------|

(You'll be alright...)
G|---------|---------|----------|---------|
D|---------|---------|----------|-----4-5-|
A|-33-3-33-|-33-3-33-|----------|-5-7-----|
E|---------|---------|-33333333-|---------|

(Come morning light...)
G|---------|---------|---------|---------|
D|---------|---------|---------|---------|
A|-33-3-33-|-33-3-33-|---------|-55-5-55-|
E|---------|---------|-33-3-33-|---------|

 (Safe ...and... sound)
G|------|------|------|-|
D|------|------|------|-|
A|-7~---|-5~---|-3~---|-|
E|------|------|------|-|

INTRO 2
G|-22222222-|----------|----------|----------|
D|----------|-22222222-|----------|----------|
A|----------|----------|-33333333-|----------| x2
E|----------|----------|----------|-33333333-|

VERSE 2
(Don't you dare look...)
G|------|-|-------|--------|
D|------|-|-------|--------|
A|-00---|-|-00----|-00-----|
E|------|-|-------|-----33-|

(The war outside...)
G|------|-|-|-------|
D|------|-|-|-------|
A|------|-|-|---/12-|
E|-55---|-|-|-------|

(Hold on to this lullaby...
G|----------|----------|----------|----------|
D|----------|----------|----------|----------|
A|----------|----------|-33333333-|----------|
E|-55555555-|-33333333-|----------|-00000000-|

(Even when this music's gone..  gone
G|----------|----------|-|-|   |-|-|
D|----------|----------|-|-|   |-|-|
A|----------|----------|-|-|   |-|-|
E|-55555555-|-33333333-|-|-|   |-|-|

CHORUS 2
(Just close your eyes...)
G|---------|---------|---------|---------|
D|---------|---------|---------|---------|
A|-33-3-33-|-33-3-33-|---------|-55-5-55-|
E|---------|---------|-33-3-33-|---------|

(You'll be alright...)
G|---------|---------|----------|---------|
D|---------|---------|----------|-----4-5-|
A|-33-3-33-|-33-3-33-|----------|-5-7-----|
E|---------|---------|-33333333-|---------|

(Come morning light...)
G|---------|---------|---------|---------|
D|---------|---------|---------|---------|
A|-33-3-33-|-33-3-33-|---------|-55-5-55-|
E|---------|---------|-33-3-33-|---------|

 (Safe ...and... sound)
G|------|------|-------------|-------------|
D|------|------|-------------|-------------|
A|-7~---|-5~---|-3x-3x-3x-3x-|-3x-3x-3x-3x-|
E|------|------|-------------|-------------|

BRIDGE 1
(Ooh hoo hoo hoooo -------- la la  la la)
G|------------|------------|------------|------------|
D|------------|------------|------------|------------|
A|-33-3-33-33-|-55-5-55-55-|-77-7-77-77-|-55-5-55-55-| x2
E|------------|------------|------------|------------|

PIANO BREAK CHORUS
(Just close your eyes...)
G|------|-|-|-|
D|------|-|-|-|
A|-3~~~-|-|-|-|
E|------|-|-|-|

NO BASS UNTIL

BRIDGE 2 / CHORUS
(Ooh hoo hoo hoooo)
G|------|----|------|-------|
D|------|----|------|-------|
A|-3--3-|-33-|------|-55--5-| x4
E|------|----|-3--3-|-------|

LAST TIME                        END ON
(Ooh hoo hoo hoooo)
G|------|------|------|------|  |------|
D|------|------|------|------|  |------|
A|-3~~~-|------|------|-5~~~-|  |-3~~~-|
E|------|------|-3~~~-|------|  |------|

Enjoy playing!
Добавлено: 05.08.2013
Другие материалы по этой песне:
  • Аккорды и текст

Страница создана 05.08.2013
http://primanota.ru/misc-unsigned-bands/terabrite-safe-sound-chords.htm
Привет, Гость.
Предлагаем пройти революционный курс по гитаре.
Подарок от PrimaNota.Ru, забирай!