PrimaNota.ru - самый крупный в мире бесплатный архив песенных текстов, аккордов, табулатур и нот


Misc Unsigned Bands - Silver Griffin - Baby - таба, видео

Регистрация Запомнить меня
Войти через:  Facebook Google Twitter Vk Yandex Mail.ru

Misc Unsigned Bands - Silver Griffin - Baby - таба, видео

Печатать
Просмотров: 95
Уроки эстрадного вокала в Санкт-Петербурге
Just heard this song, thought it was pretty catchy so I tabbed it out.
It's tabbed into the general melody, but listen to the song to get it down.

Standard Tuning
h = hammer on
p = pull off
/ = slide

Intro:
e|-----------------------------------|
B|-----------------------------------|
G|-------------------------------13--| x2
D|-------11p9-7---------14h12-11-----|
A|---7h9-----------11/12-------------|
E|-----------------------------------|


Verse:
e|------------------------------------------|
B|------------------------------------------|
G|--------------------------------------13--|
D|------11p9-7-----11p9-7-------14h12-11----|  x2
A|---7h9---------7h9-------11/12------------|
E|------------------------------------------|


Pre-Chorus:
e|--------------------------------        ----------------------|
B|--------------------------------        ----------------------|
G|-------------------------------- x3  -------------------------|
D|-------11-----11---9/7---9/7----        --9p7----9p7----------|
A|---7h9----7h9----------9-----9--        ------9------9-9p7----|
E|--------------------------------        -- -------------------|


Chorus:
Part A
e|---------------------------------------------------------|
B|---------------------------------------------------------|
G|--9-9-9-9-9-9--------------------------------------------| x2
D|--9-9-9-9-9-9-11-11-11-11-11-11-9-9-9-9-9-9--9-9-9-9-9-9-|
A|--7-7-7-7-7-7-11-11-11-11-11-11-9-9-9-9-9-9--9-9-9-9-9-9-|
E|---------------9--9--9--9--9--9-7-7-7-7-7-7--7-7-7-7-7-7-|

Part B
e|--------------------------------------------------------|
B|--------------------------------------------------------|
G|--9--9--9--9--------------------------------------------|
D|--9--9--9--9--11-11-11-11--9--9--9-9-9-9--9--9--9-9-9-9-| x2
A|--7--7--7--7--11-11-11-11--9--9--9-9-9-9--9--9--9-9-9-9-|
E|---------------9--9--9--9--7--7--7-7-7-7--7--7--7-7-7-7-|


Fill:
e|------------------------------|
B|------------------------------|
G|------------------------------|  x2
D|-----------------9-7-7--9-7-7-|
A|---7-9-9--7-9-9---------------|
E|------------------------------|

Solo:
e|--------------------------------       ------------------------------------|
B|--------------------------------        -----------------------------------|
G|--------------------------------        -----------------------------------|
D|-------11-----11---9/7---9/7----  x4  --11h14-11-11h14-11-9h11-9-9h11-9----|
A|---7h9----7h9----------9-----9--        -----------------------------------|
E|--------------------------------        -----------------------------------|

e|-------------------------------------------------------------------|
B|-------------------------------------------------------------------|
G|--------------------11p9----11p9-----------------------------------|
D|--11h14-11-11h14-11------11------9-11h14-11-11h14-11-9h11-9-9h11-9-|
A|-------------------------------------------------------------------|
E|-------------------------------------------------------------------|

e|---------------------------------|
B|---------------------------------|
G|---------------------------------|
D|--10-11h12-11h12-11h12-11h12-11\-|
A|---------------------------------|
E|---------------------------------|

In Order:
Intro
Verse
Pre-Chorus
Chorus
Fill
Verse
Pre-Chorus
Chorus
Solo
Chorus (Part B x4)

Note also that they use two guitarists, so this is slightly modified to accommodate that.
Thanks for playing
-DC
Добавлено: 05.08.2013
Другие материалы по этой песне:
  • Аккорды и текст

Страница создана 05.08.2013
http://primanota.ru/misc-unsigned-bands/silver-griffin-baby-chords.htm
Привет, Гость.
Предлагаем пройти революционный курс по гитаре.
Подарок от PrimaNota.Ru, забирай!