PrimaNota.ru - самый крупный в мире бесплатный архив песенных текстов, аккордов, табулатур и нот


Misc Unsigned Bands - Sing It Loud - Come Around - таба, видео

Регистрация Запомнить меня
Войти через:  Facebook Google Twitter Vk Yandex Mail.ru

Misc Unsigned Bands - Sing It Loud - Come Around - таба, видео

Печатать
Просмотров: 58
Уроки эстрадного вокала в Санкт-Петербурге
ok this is the rythm guitar. its in drop d

play twice
e|-----------------------|
B|-----------------------|
G|-----------------------|
D|-0~-----5~-----9--7--5-|
A|-0~-----5~-----9--7--5-|
D|-0~-----5~-----9--7--5-|

e|---------------------------------------------------|
B|---------------------------------------------------|
G|---------------------------------------------------|
D|-0-0-0-0-0-0-0-0-0-0-0-0--5-5-5-5-5-5-5-5-5-5-5-5--|
A|-0-0-0-0-0-0-0-0-0-0-0-0--5-5-5-5-5-5-5-5-5-5-5-5--|
D|-0-0-0-0-0-0-0-0-0-0-0-0--5-5-5-5-5-5-5-5-5-5-5-5--|

e|-----------------------------------|
B|-----------------------------------|
G|-----------------------------------|
D|-9-9-9-9-9-9-9-9-9-9-9-9--7--5--0~-|
A|-9-9-9-9-9-9-9-9-9-9-9-9--7--5--0~-|
D|-9-9-9-9-9-9-9-9-9-9-9-9--7--5--0~-|
Добавлено: 31.10.2013
Другие материалы по этой песне:
  • Аккорды и текст

Страница создана 31.10.2013
http://primanota.ru/misc-unsigned-bands/sing-it-loud-come-around-chords.htm
Привет, Гость.
Предлагаем пройти революционный курс по гитаре.
Подарок от PrimaNota.Ru, забирай!