PrimaNota.ru - самый крупный в мире бесплатный архив песенных текстов, аккордов, табулатур и нот


Misc Unsigned Bands - Silence After Summer - I Hate You - таба, видео

Регистрация Запомнить меня
Войти через:  Facebook Google Twitter Vk Yandex Mail.ru

Misc Unsigned Bands - Silence After Summer - I Hate You - таба, видео

Печатать
Просмотров: 47
Band: Silence After Summer
Song: I Hate You
Tuning: Dropped C
This tab is 100% correct. Silence After Summer are a high energy Screamo/Metal band from 
Zealand. They are all 14 but are already playing with the big guns of the New Music 
i.e False Start, Trigger Theory, The Rabble etc...

Guitar 1 (Ollie S)
Guitar 2 (Josh R)

Intro

Guitar 1
d[-------------------------------------------]
A[-------------------------------------------]
F[-------------------------------------------] x9
C[--12121212-15151515-14141414-15151515------]
G[-------------------------------------------]
C[-------------------------------------------]

d[-------------------------------------]
A[-------------------------------------]
F[------7777-10101010-9999-10101010----] x8
C[------xxxx-x-x-x-x--xxxx-x-x-x-x-----]
G[------5555-8-8-8-8--7777-8-8-8-8-----]
C[-------------------------------------]

Guitar 2
d[-------------------------------]
A[-------------------------------]
F[-------------------------------] x1
C[--0~----8~----5~----8~---------]
G[--0~----8~----5~----8~--00-----]
C[--0~----8~----5~----8~--00-----]
PM                        ..

d[---------------------------------------------]
A[---------------------------------------------]
F[---10101010-14141414-12121212-14141414-------] x2
C[---------------------------------------------]
G[---------------------------------------------]
C[---------------------------------------------]

d[-----------------------------------------]
A[-----------------------------------------]
F[-----------------------------------------] x2
C[-00000000-88888888-55555555-88888888-----]
G[-00000000-88888888-55555555-88888888-----]
C[-00000000-88888888-55555555-88888888-----]

Verse

Guitar 1

d[---------------------------------------------------------------------]
A[---------------------------------------------------------------------]
F[---------------------------------------------------------------------] x2
C[-----0---0---0---0---8---8---8---8---5---5---5---5---8---8---8---8---]
G[---000-000-000-000-888-888-888-888-555-555-555-555-888-888-888-888---]
C[---000-000-000-000-888-888-888-888-555-555-555-555-888-888-888-888---]
PM   ..  ..  ..  ..  ..  ..  ..  ..  ..  ..  ..  ..  ..  ..  ..  ..

Guitar 2

d[---------------------------------------------------------------------]
A[---------------------------------------------------------------------]
F[---------------------------------------------------------------------] x1
C[-----0---0---0---0---8---8---8---8---5---5---5---5---8---8---8---8---]
G[---000-000-000-000-888-888-888-888-555-555-555-555-888-888-888-888---]
C[---000-000-000-000-888-888-888-888-555-555-555-555-888-888-888-888---]
PM   ..  ..  ..  ..  ..  ..  ..  ..  ..  ..  ..  ..  ..  ..  ..  ..

d[-------------------------------------------------------------------------]
A[-------------------------------------------------------------------------]
F[-----------------------------------------------------------------------x1]
C[-------------------------------------------------------------------------]
G[-----0000000000000000-8888888888888888-5555555555555555-8888888888888888-]
C[-12/-0000000000000000-8888888888888888-5555555555555555-8888888888888888-]
PM     ................ ................ ................ ................
Downstrokes----------------------------------------------------------------]

Pre-chorus

Guitar 1

d[---------------------------------------------------------------<7>---]
A[---------------------------------------------------------------------]
F[--10--10--10--10--9--9--9--9--10--10--10--10--9--9--9--9-------------]
C[----10--10--10--10-10-10-10-10--10--10--10--10-10-10-10-10~----------]
G[---------------------------------------------------------------------]
C[---------------------------------------------------------------------]

Guitar 2

d[-------------------------------------<7>--]
A[------------------------------------------]
F[------------------------------------------]
C[------8~------10~-----8~-----10~----------]
G[----5-------8-------5--------8~-----------]
C[--5-------8-------5----------8~-----------]

Chorus

Guitar 1

d[----------------------------------------------------------------------]
A[----------------------------------------------------------------------]
F[---7----10----9----10----7----10-----9----10----7----10----9----10----] x4
C[---x-x8-x--x4-x-x4-x--x8-x-x4-x--x4--x-x8-x--x4-x-x4-x--x8-x-x4-x--x4-]
G[---5----8-----7----8-----5----8------7----8-----5----8-----7----8-----]
C[----------------------------------------------------------------------]

Guitar 2

d[-------------------------------------------------------------]
A[-------------------------------------------------------------]
F[-------------------------------------------------------------] x4
C[--00000000-88888888-33333333-1010101010101010----------------]
G[--00000000-88888888-33333333-1010101010101010----------------]
C[--00000000-88888888-33333333-1010101010101010----------------]

Verse
Pre-chorus
Chorus
Guitar 1 End on
C[--0~--]
G[--0~--]
C[--0~--]

Interlude

Guitar 1
d[---------------------------------------------------------------------]
A[---------------------------------------------------------------------]
F[--10--10--10--10--9--9--9--9--10--10--10--10--9--9--9--9-------------] x6
C[----10--10--10--10-10-10-10-10--10--10--10--10-10-10-10-10-----------]
G[---------------------------------------------------------------------]
C[---------------------------------------------------------------------]

Guitar 2
d[------------------------------------------]
A[------------------------------------------]
F[------------------------------------------]
C[---0~-------------------------0~-----0~---]
G[---0~----0000-8888-5555-8888--0~--00-0~---]
C[---0~----0000-8888-5555-8888--0~--00-0~---]
PM         .... .... .... ....      ..

Last Chorus
Guitar 1 play Chorus x8
Guitar 2 play halftime chorus x2 then fulltime chorus x2
End on
C[--0~--12/-1---]
G[--0~--12/-1---]
C[--0~--12/-1---]

Tab Legand

/ slide down
<> Natural harmonic
~let note ring
PM.. Palm mute notes with . under them

MAKE SURE YOU CHECK OUT THEIR MYSPACE PROFILE!! WWW.MYSPACE.COM/SILENCEAFTERSUMMER

Rock on! x
Josh SAS
Добавлено: 16.11.2013
Другие материалы по этой песне:
  • Аккорды и текст

Страница создана 16.11.2013
http://primanota.ru/misc-unsigned-bands/silence-after-summer-i-hate-you-chords.htm
Привет, Гость.
Предлагаем пройти революционный курс по гитаре.
Подарок от PrimaNota.Ru, забирай!