PrimaNota.ru - самый крупный в мире бесплатный архив песенных текстов, аккордов, табулатур и нот


Misc Unsigned Bands - Sharkpunch - Dinocore - таба

Регистрация Запомнить меня
Войти через:  Facebook Google Twitter Vk Yandex Mail.ru

Misc Unsigned Bands - Sharkpunch - Dinocore - таба

Печатать
Просмотров: 38
i posted livin la vida sxe a little while ago, and now heres dinocore
enjoy



D |-0-0-3-0-0-3-0-0-3-2-1p-0-|
A |-0-0-3-0-0-3-0-0-3-2-1p-0-|   intro/outro
D |-0-0-3-0-0-3-0-0-3-2-1p-0-|
G |--------------------------|
B |--------------------------|
E |--------------------------|

D |-----------0-0-0-0-0-0-3-3-3-3-3-------------|
A |-5-5-5-3-5-0-0-0-0-0-0-3-3-3-3-3-1-1-1-1-1-1-|
D |-7-7-7-5-7-0-0-0-0-0-0-3-3-3-3-3-3-3-3-3-3-3-|       2 step
G |-7-7-7-5-7-----------------------3-3-3-3-3-3-|
B |---------------------------------------------|
E |---------------------------------------------|

         p     p
D |-0~0-1~1-0~1-3-1-|
A |-0~0-1~1-0~1-3-1-|
D |-0~0-1~1-0~1-3-1-|    bridge
G |-----------------|
B |-----------------|
E |-----------------|

    d d   d d d u d d d
D |-0-0---0-0-0-0-0-0-0-|
A |-0-0---0-0-0-0-0-0-0-|    breakdown
D |-0-0---0-0-0-0-0-0-0-|
Добавлено: 28.10.2013
Другие материалы по этой песне:
  • Аккорды и текст

Страница создана 28.10.2013
http://primanota.ru/misc-unsigned-bands/sharkpunch-dinocore-chords.htm
Привет, Гость.
Предлагаем пройти революционный курс по гитаре.
Подарок от PrimaNota.Ru, забирай!