PrimaNota.ru - самый крупный в мире бесплатный архив песенных текстов, аккордов, табулатур и нот


Misc Unsigned Bands - Shelbyville - Recalibrate Celebrate - таба

Регистрация Запомнить меня
Войти через:  Facebook Google Twitter Vk Yandex Mail.ru

Misc Unsigned Bands - Shelbyville - Recalibrate Celebrate - таба

Печатать
Просмотров: 36
Artist: Shelbyville
Song: Recalibrate & Celebrate

Tuning: drop C#

/ = SLIDE
h = HAMMER ON
p = PULL OFF
. = PALM MUTE


--------------------
Verse:
--------------------

Guitar 1
Eb|--------------------------------------------------------------|
Bb|--------------------------------------------------------------|
F#|-------------------------------------------------------11/6/7-|
C#|-00-0~----55-5--77-7----------00-0~--00-0-0-55-5--77-7--------|
G#|-00-0~----55-5--77-7--9h10p9--00-0~--00-0-0-55-5--77-7--9/4/5-|
C#|-00-0~----55-5--77-7----------00-0~--00-0-0-55-5--77-7--------|
                                        .

Guitar 2
Eb|-------------------------------------------------|
Bb|-------------------------------------------------|
F#|-------------------------------------------------|
C#|-00-0~----55-5--77-7----00-0~--00-0-0-55-5--77-7-|
G#|-00-0~----55-5--77-7----00-0~--00-0-0-55-5--77-7-|
C#|-00-0~----55-5--77-7----00-0~--00-0-0-55-5--77-7-|
                                  .

Guitars 1 & 2
Eb|---------------------------------------|
Bb|---------------------------------------|
F#|---------------------------------------|
C#|-00-0~-0000-4h5-00-7-5~55-5~57~77-7~77-|
G#|-00-0~-0000-4h5-00-7-5~55-5~57~77-7~77-|
C#|-00-0~-0000-4h5-00-7-5~55-5~57~77-7~77-|
          ....     .      .    .  .    .

Eb|------------------------------------|
Bb|------------------------------------|
F#|------------------------------------|
C#|-00-0~-0000-4h5-00-7-5~55-5~xx77777-|
G#|-00-0~-0000-4h5-00-7-5~55-5~xx77777-|
C#|-00-0~-0000-4h5-00-7-5~55-5~xx77777-|
          ....     .      .


--------------------
Chorus:
--------------------

Guitar 1 & 2
Eb|-----------------------------------------------------------------|
Bb|-----------------------------------------------------------------|
F#|-----------------7-7-7-7-7-7-7-7---------------------------------|
C#|-5-5-5-5-5-5-5-5-7-7-7-7-7-7-7-7-7-7-7-7-7-7-7-7-7-7-7-7-7-7-7-7-|
G#|-5-5-5-5-5-5-5-5-5-5-5-5-5-5-5-5-7-7-7-7-7-7-7-7-7-7-7-7-7-7-7-7-|
C#|-5-5-5-5-5-5-5-5-----------------7-7-7-7-7-7-7-7-7-7-7-7-7-7-7-7-|

Eb|-------------------------------------------------------------|
Bb|-------------------------------------------------------------|
F#|-----------------7-7-7-7-7-7-7-7-----------------------------|
C#|-5-5-5-5-5-5-5-5-7-7-7-7-7-7-7-7-7-7-7-7-7-7-7-7-7-7-7-7-7-4-|
G#|-5-5-5-5-5-5-5-5-5-5-5-5-5-5-5-5-7-7-7-7-7-7-7-7-7-7-7-7-7-5-|
C#|-5-5-5-5-5-5-5-5-----------------7-7-7-7-7-7-7-7-7-7-7-7-7-4-|

    U U U D U D U U U D U D U U U D U D U
Eb|---------------------------------------|
Bb|---------------------------------------|
F#|-------------7-7-7-7-7-7---------------|
C#|-5-5-5-5-5-5-7-7-7-7-7-7-7-7-7-7-7-7-7-|
G#|-5-5-5-5-5-5-5-5-5-5-5-5-7-7-7-7-7-7-7-|
C#|-5-5-5-5-5-5-------------7-7-7-7-7-7-7-|

Guitar 1
Eb|-----------------------------------------------------|
Bb|-----------------------------------------------------|
F#|-7/99/1111/7---------1111----6--14-14/12-12/11-11/12-|
C#|-------------5555-xx------xx-------------------------|
G#|-5/77/-9-9/5-5555-xx--9-9-xx-4--12-12/10-10/-9--9/10-|
C#|-------------5555-xx------xx-------------------------|
                ..   ..      ..

Guitar 2
Eb|---------------------------------|
Bb|---------------------------------|
F#|---------------------------------|
C#|-7-7-7-7-7-7-7-7-5-5-5-5-0-0-0-7-|
G#|-7-7-7-7-7-7-7-7-5-5-5-5-0-0-0-7-|
C#|-7-7-7-7-7-7-7-7-5-5-5-5-0-0-0-7-|


--------------------
Verse 2:
--------------------

Guitar 1
Eb|-------------------------------------------------------|
Bb|-------------------------------------------------------|
F#|-7-7-7-7-7-7-7-7-7-7-7-7-6-6-6-6-4-4-4-4-4-4-4-4-4-4-4-|
C#|-------------------------------------------------------|
G#|-5-5-5-5-5-5-5-5-5-5-5-5-4-4-4-4-2-2-2-2-2-2-2-2-2-2-2-|
C#|-------------------------------------------------------|

Eb|------------------------------------------------------------------------------|
Bb|------------------------------------------------------------------------------|
F#|-11-11-11-11-12-12-11-11-11-11-11-11-11-11-11-11-11-11-11-11-11-9-9-9-9-9-9-9-|
C#|------------------------------------------------------------------------------|
G#|--9--9--9--9-10-10--9--9--9--9--9--9--9--9--9--9--9--9--9--9--9-7-7-7-7-7-7-7-|
C#|------------------------------------------------------------------------------|

Guitar 2
Eb|-----------------------------------------------------------------|
Bb|-----------------------------------------------------------------|
F#|-----------------------------------------------------------------|
C#|-0-0-0-0-0-0-0-0-0-0-0-0-0-0-0-0-9-9-9-9-9-9-9-9-9-9-9-9-9-9-9-9-|
G#|-0-0-0-0-0-0-0-0-0-0-0-0-0-0-0-0-9-9-9-9-9-9-9-9-9-9-9-9-9-9-9-9-|
C#|-0-0-0-0-0-0-0-0-0-0-0-0-0-0-0-0-9-9-9-9-9-9-9-9-9-9-9-9-9-9-9-9-|

Eb|-----------------------------------------------|
Bb|-----------------------------------------------|
F#|-----------------------------------------------|
C#|-5-5-5-5-5-5-5-5-5-5-5-5-5-5-5-5-7-7-7-7-7-7-7-|
G#|-5-5-5-5-5-5-5-5-5-5-5-5-5-5-5-5-7-7-7-7-7-7-7-|
C#|-5-5-5-5-5-5-5-5-5-5-5-5-5-5-5-5-7-7-7-7-7-7-7-|

Guitars 1 & 2
Eb|----------------|
Bb|----------------|
F#|----------------|
C#|-00-7-5-4-5-4-2-|
G#|-00-7-5-4-5-4-2-|
C#|-00-7-5-4-5-4-2-|
    ..


--------------------
Bridge:
--------------------

Guitar 1
Eb|---------------------------------------------------------------|
Bb|---------------------------------------------------------------|
F#|---------------------------------------------------------------|
C#|-0-0-0-0-0-0-0-0-0-0-0-0-0-0-0-9-9-9-9-9-9-9-9-9-9-9-9-9-9-9-9-|
G#|-0-0-0-0-0-0-0-0-0-0-0-0-0-0-0-9-9-9-9-9-9-9-9-9-9-9-9-9-9-9-9-|
C#|-0-0-0-0-0-0-0-0-0-0-0-0-0-0-0-9-9-9-9-9-9-9-9-9-9-9-9-9-9-9-9-|
    . . . . . . . . . . . . . . . . . . . . . . . . . . . . . . .

Eb|---------------------------------------------------------------|
Bb|---------------------------------------------------------------|
F#|---------------------------------------------------------------|
C#|-5-5-5-5-5-5-5-5-5-5-5-5-5-5-5-5-7-7-7-7-7-7-7-7-7777-7777-777-|
G#|-5-5-5-5-5-5-5-5-5-5-5-5-5-5-5-5-7-7-7-7-7-7-7-7-7777-7777-777-|
C#|-5-5-5-5-5-5-5-5-5-5-5-5-5-5-5-5-7-7-7-7-7-7-7-7-7777-7777-777-|
    . . . . . . . . . . . . . . . . . . . . . . . . ..   ..   ..

Guitar 2
Eb|---------------|
Bb|---------------|
F#|---------------|
C#|-7777-7777-777-|
G#|-7777-7777-777-|
C#|-7777-7777-777-|
    ..   ..   ..


--------------------
Breakdown:
--------------------

Guitar 1
Eb|-------------------------------------------------------------|
Bb|-------------------------------------------------------------|
F#|-------------------------------------------------------------|
C#|-------------------------------------------------------------|
G#|--------4p0----4-4-4-5-5-5-7-7--------4p0----4-4-4-5-5-5-7-7-|
C#|-0-0-0-0----0-0----------------0-0-0-0----0-0----------------|
    . . . .    . .                . . . .    . .

Eb|------------------------------------------------|
Bb|------------------------------------------------|
F#|------------------------------------------------|
C#|----------------------------------------------5-|
G#|--------4p0----4-4-4-5-5-5-7-7--------4p0-----5-|
C#|-5-5-5-5----5-5----------------5-5-5-5----5-5-5-|
    . . . .    . .                . . . .    . .

Eb|-------------------------------------------------------------|
Bb|-------------------------------------------------------------|
F#|---------------6-6-6-7-7-7-9-9---------------6-6-6-7-7-7-9-9-|
C#|-------------------------------------------------------------|
G#|--------4p0----4-4-4-5-5-5-7-7--------4p0----4-4-4-5-5-5-7-7-|
C#|-0-0-0-0----0-0----------------0-0-0-0----0-0----------------|
    . . . .    . .                . . . .    . .

Eb|------------------------------------------------------------|
Bb|------------------------------------------------------------|
F#|---------------6-6-6-7-7-7-9-9---------------6-6-6-7-7-7----|
C#|---------------------------------------------------------07-|
G#|--------4p0----4-4-4-5-5-5-7-7--------4p0----4-4-4-5-5-5-07-|
C#|-5-5-5-5----5-5----------------5-5-5-5----5-5------------07-|
    . . . .    . .                . . . .    . .            .

Eb|-------------------------------------------------------------|
Bb|-------------------------------------------------------------|
F#|---------------6-6-6-7-7-7-9-9---------------6-6-6-7-7-7-9-9-|
C#|-------------------------------------------------------------|
G#|--------4p0----4-4-4-5-5-5-7-7--------4p0----4-4-4-5-5-5-7-7-|
C#|-0-0-0-0----0-0----------------0-0-0-0----0-0----------------|
    . . . .    . .                . . . .    . .

Eb|----------------------------------------------|
Bb|----------------------------------------------|
F#|----------------------------------------------|
C#|--------------------------------------------5-|
G#|--------4p0----4-4-4-5-5-5-7-7--------4p0---5-|
C#|-5-5-5-5----5-5----------------5-5-5-5----5-5-|
    . . . .    . .                . . . .    .

Guitar 2
Eb|--------------------------------------------------------------------------|
Bb|--------------------------------------------------------------------------|
F#|--------------------------------------------------------------------------|
C#|-0-0-0-0---0-0~----0-0-0-0---0-0~---5-5-5-5---5-5~----5-5-5-5---5-5~---07-|
G#|-0-0-0-0---0-0~----0-0-0-0---0-0~---5-5-5-5---5-5~----5-5-5-5---5-5~---07-|
C#|-0-0-0-0---0-0~----0-0-0-0---0-0~---5-5-5-5---5-5~----5-5-5-5---5-5~---07-|
    . . . .   . .     . . . .   . .    . . . .   . .     . . . .   . .    .


--------------------
Chorus
--------------------
Добавлено: 25.08.2013
Другие материалы по этой песне:
  • Аккорды и текст

Страница создана 25.08.2013
http://primanota.ru/misc-unsigned-bands/shelbyville-recalibrate-celebrate-chords.htm
Привет, Гость.
Предлагаем пройти революционный курс по гитаре.
Подарок от PrimaNota.Ru, забирай!