PrimaNota.ru - самый крупный в мире бесплатный архив песенных текстов, аккордов, табулатур и нот


Misc Unsigned Bands - Septicide - Septic Genocide - таба

Регистрация Запомнить меня
Войти через:  Facebook Google Twitter Vk Yandex Mail.ru

Misc Unsigned Bands - Septicide - Septic Genocide - таба

Печатать
Просмотров: 52
Septicide 

Septic Genocide

Tuning - Drop D

KEY - O - Open
      V - Vibrato
      PM/M - Palm Mute
      H - Pitch Harmonic
      ~ - Let Ring
      B - Bend
      HAM - Hammer On


Intro

  O M M M M O O M M M M O  O M M M M O O M M M M MMMMMMMMMMMM Trem-------
E------------------------------------------------------------------------|
B------------------------------------------------------------------------|
G------------------------------------------------------------------------|
D------------------------------------------------------------------------|
A-0-0-0-0-0-4-3-3-3-3-3-6/|0-0-0-0-0-4-3-3-3-3-3-333333333333-6666666666/|
D-0-0-0-0-0-4-3-3-3-3-3-6/|0-0-0-0-0-4-3-3-3-3-3-333333333333-6666666666/|

  Trem-------------------------------------------------------------------- M O M O
E---------------------------------------------------------------------------------|
B---------------------------------------------------------------------------------|
G---------------------------------------------------------------------------------|
D---------------------------------------------------------------------------------|
A-000000000044444444443333333333666666666600000000000044444444443333333333-0-6-0-6|
D-000000000044444444443333333333666666666600000000000044444444443333333333-0-6-0-6|

  Trem-------------------------------------------------------------------- M O M O
E---------------------------------------------------------------------------------|
B---------------------------------------------------------------------------------|
G---------------------------------------------------------------------------------|
D---------------------------------------------------------------------------------|
A-000000000044444444443333333333666666666600000000000044444444443333333333-0-6-0-6|
D-000000000044444444443333333333666666666600000000000044444444443333333333-0-6-0-6|

Verse

  Palm Mute------------------------------|
E----------------------------------------|
B----------------------------------------|
G----------------------------------------|
D----------------------------------------|
A-0134-0467-0134-0467-0134-0467-0134-0467|
D-0134-0467-0134-0467-0134-0467-0134-0467|

  MMMM O O MMMM O O MMMM O O MMMM O O MMMM O O MMMM O O MMMM O O MMMM O O
E------------------------------------------------------------------------|
B------------------------------------------------------------------------|
G------------------------------------------------------------------------|
D------------------------------------------------------------------------|
A-0000-1/4-0000-4/7-0000-1/4-0000-4/7-0000-1/4-0000-4/7-0000-1/4-0000-4/7|
D-0000-1/4-0000-4/7-0000-1/4-0000-4/7-0000-1/4-0000-4/7-0000-1/4-0000-4/7|

  Palm Mute------------------------------|
E----------------------------------------|
B----------------------------------------|
G----------------------------------------|
D----------------------------------------|
A-0134-0467-0134-0467-0134-0467-0134-0467|
D-0134-0467-0134-0467-0134-0467-0134-0467|

  MMMM O O MMMM O O MMMM O O MMMM O O MMMM O O MMMM O O MMMM O O MMMM O O
E------------------------------------------------------------------------|
B------------------------------------------------------------------------|
G------------------------------------------------------------------------|
D------------------------------------------------------------------------|
A-0000-1/4-0000-4/7-0000-1/4-0000-4/7-0000-1/4-0000-4/7-0000-1/4-0000-4/7|
D-0000-1/4-0000-4/7-0000-1/4-0000-4/7-0000-1/4-0000-4/7-0000-1/4-0000-4/7|

Bridge

  MMMM HAM-- M HAM-- MMMM HAM-- M HAM-- MMMM HAM-- M HAM-- O O O O M H~
E-------------------|------------------|------------------|------------|
B-------------------|------------------|------------------|------------|
G-------------------|------------------|------------------|------------|
D-------------------|------------------|------------------|------------|
A-0010-5H8H5-0-4H7H4|0010-5H8H5-0-4H7H4|0010-5H8H5-0-4H7H4|--4-------6-|
D-0010-------0------|0010-------0------|0010-------0------|8---6-5-5---| X4

Chorus

  B-- MMMMMMMM B-- MMMMMMMM B-- MMMMMMMM Trem--------H~
E------------------------------------------------------|
B------------------------------------------------------|
G------------------------------------------------------|
D----------------------------------------------------6-|
A-3B0-11111111-3B0-11111111-3B0-11111111-556655886655--|
D-3B0-11111111-3B0-11111111-3B0-11111111---------------|

  B-- MMMMMMMM B-- MMMMMMMM B-- MMMMMMMM Trem----------------------|
E------------------------------------------------------------------|
B------------------------------------------------------------------|
G------------------------------------------------------------------|
D------------------------------------------------------------------|
A-3B0-11111111-3B0-11111111-3B0-11111111-556655886655--------------|
D-3B0-11111111-3B0-11111111-3B0-11111111-------------99776633113344|

  B-- MMMMMMMM B-- MMMMMMMM B-- MMMMMMMM Trem--------H~~~~
E---------------------------------------------------------|
B---------------------------------------------------------|
G---------------------------------------------------------|
D----------------------------------------------------6----|
A-3B0-11111111-3B0-11111111-3B0-11111111-556655886655-----|
D-3B0-11111111-3B0-11111111-3B0-11111111------------------|

  B-- MMMMMMMM B-- MMMMMMMM B-- MMMMMMMM Trem----------------------|
E------------------------------------------------------------------|
B------------------------------------------------------------------|
G------------------------------------------------------------------|
D------------------------------------------------------------------|
A-3B0-11111111-3B0-11111111-3B0-11111111-556655886655--------------|
D-3B0-11111111-3B0-11111111-3B0-11111111-------------99776633113344|

Verse

  Palm Mute------------------------------|
E----------------------------------------|
B----------------------------------------|
G----------------------------------------|
D----------------------------------------|
A-0134-0467-0134-0467-0134-0467-0134-0467|
D-0134-0467-0134-0467-0134-0467-0134-0467|

  MMMM O O MMMM O O MMMM O O MMMM O O MMMM O O MMMM O O MMMM O O MMMM O O
E------------------------------------------------------------------------|
B------------------------------------------------------------------------|
G------------------------------------------------------------------------|
D------------------------------------------------------------------------|
A-0000-1/4-0000-4/7-0000-1/4-0000-4/7-0000-1/4-0000-4/7-0000-1/4-0000-4/7|
D-0000-1/4-0000-4/7-0000-1/4-0000-4/7-0000-1/4-0000-4/7-0000-1/4-0000-4/7|

  Palm Mute------------------------------|
E----------------------------------------|
B----------------------------------------|
G----------------------------------------|
D----------------------------------------|
A-0134-0467-0134-0467-0134-0467-0134-0467|
D-0134-0467-0134-0467-0134-0467-0134-0467|

  MMMM O O MMMM O O MMMM O O MMMM O O MMMM O O MMMM O O MMMM O O MMMM O O
E------------------------------------------------------------------------|
B------------------------------------------------------------------------|
G------------------------------------------------------------------------|
D------------------------------------------------------------------------|
A-0000-1/4-0000-4/7-0000-1/4-0000-4/7-0000-1/4-0000-4/7-0000-1/4-0000-4/7|
D-0000-1/4-0000-4/7-0000-1/4-0000-4/7-0000-1/4-0000-4/7-0000-1/4-0000-4/7|

Bridge

  MMMM HAM-- M HAM-- MMMM HAM-- M HAM-- MMMM HAM-- M HAM-- O O O O M H~
E-------------------|------------------|------------------|------------|
B-------------------|------------------|------------------|------------|
G-------------------|------------------|------------------|------------|
D-------------------|------------------|------------------|------------|
A-0010-5H8H5-0-4H7H4|0010-5H8H5-0-4H7H4|0010-5H8H5-0-4H7H4|--4-------6-|
D-0010-------0------|0010-------0------|0010-------0------|8---6-5-5---| X4

Chorus

  B-- MMMMMMMM B-- MMMMMMMM B-- MMMMMMMM Trem--------H~
E------------------------------------------------------|
B------------------------------------------------------|
G------------------------------------------------------|
D----------------------------------------------------6-|
A-3B0-11111111-3B0-11111111-3B0-11111111-556655886655--|
D-3B0-11111111-3B0-11111111-3B0-11111111---------------|

  B-- MMMMMMMM B-- MMMMMMMM B-- MMMMMMMM Trem----------------------|
E------------------------------------------------------------------|
B------------------------------------------------------------------|
G------------------------------------------------------------------|
D------------------------------------------------------------------|
A-3B0-11111111-3B0-11111111-3B0-11111111-556655886655--------------|
D-3B0-11111111-3B0-11111111-3B0-11111111-------------99776633113344|

  B-- MMMMMMMM B-- MMMMMMMM B-- MMMMMMMM Trem--------H~~~~
E---------------------------------------------------------|
B---------------------------------------------------------|
G---------------------------------------------------------|
D----------------------------------------------------6----|
A-3B0-11111111-3B0-11111111-3B0-11111111-556655886655-----|
D-3B0-11111111-3B0-11111111-3B0-11111111------------------|

  B-- MMMMMMMM B-- MMMMMMMM B-- MMMMMMMM M M M M
E-----------------------------------------------|
B-----------------------------------------------|
G-----------------------------------------------|
D-----------------------------------------------|
A-3B0-11111111-3B0-11111111-3B0-11111111-0-0-0-0|
D-3B0-11111111-3B0-11111111-3B0-11111111-0-0-0-0|

Second Bridge (Fast)

  OMMMOMMOMMOMMMOMMOMMOMMMOMMOMM O MM O MM O
E-------------------------------------------|
B-------------------------------------------|
G-------------------------------------------|
D--------------------------------7-00-8-00-6|
A-100010010010001001001000100100-5-00-6-00-4|
D-100010010010001001001000100100------------| x5

Breakdown

  MMMMMMMM M MMMMMMMMMM HAM  MMMMMMMM M MMMMMMMM Trem--
E------------------------------------------------------|
B------------------------------------------------667755|
G------------------------------------------------778866|
D---------------------------|--------------------778866|
A-00000000-1-0000000000-----|00000000-1-00000000-556644|
D-00000000-1-0000000000-4H7-|00000000-1-00000000-------|

  MMMMMMMM M MMMMMMMMMM Bend MMMMMMMM M MMMMMMMM Trem--
E------------------------------------------------------|
B------------------------------------------------667755|
G------------------------------------------------778866|
D---------------------------|--------------------778866|
A-00000000-1-0000000000-1---|00000000-1-00000000-556644|
D-00000000-1-0000000000-1---|00000000-1-00000000-------|

Second Bridge (Fast)

  OMMMOMMOMMOMMMOMMOMMOMMMOMMOMM O MM O MM O
E-------------------------------------------|
B-------------------------------------------|
G-------------------------------------------|
D--------------------------------7-00-8-00-6|
A-100010010010001001001000100100-5-00-6-00-4|
D-100010010010001001001000100100------------| x2

Breakdown

  MMMMMMMM M MMMMMMMMMM HAM  MMMMMMMM M MMMMMMMM Trem--
E------------------------------------------------------|
B------------------------------------------------667755|
G------------------------------------------------778866|
D---------------------------|--------------------778866|
A-00000000-1-0000000000-----|00000000-1-00000000-556644|
D-00000000-1-0000000000-4H7-|00000000-1-00000000-------|

  MMMMMMMM M MMMMMMMMMM Bend MMMMMMMM M MMMMMMMM Trem--
E------------------------------------------------------|
B------------------------------------------------667755|
G------------------------------------------------778866|
D---------------------------|--------------------778866|
A-00000000-1-0000000000-1---|00000000-1-00000000-556644|
D-00000000-1-0000000000-1---|00000000-1-00000000-------|


Drum and Guitars Sync

  MMMMMMMM O MMMMMMMM O MMMMMMMM  MMMMMMMM M MMMMMMMM M MMMMMMMM
E----------------------------------------------------------------|
B----------------------------------------------------------------|
G----------------------------------------------------------------|
D----------------------------------------------------------------|
A-00000000-1-00000000-1-11111111-|00000000-1-00000000-1-11111111-|
D-00000000-1-00000000-1-11111111-|00000000-1-00000000-1-11111111-|

  MMMMMMMM M MMMMMMMM M MMMMMMMM MMMMMMMM M MMMMMMMM M Slide
E----------------------------------------------------------|
B----------------------------------------------------------|
G----------------------------------------------------------|
D----------------------------------------------------------|
A-00000000-1-00000000-1-11111111-00000000-1-00000000-1-12/3|
D-00000000-1-00000000-1-11111111-00000000-1-00000000-1-12/3|

Chorus

  B-- MMMMMMMM B-- MMMMMMMM B-- MMMMMMMM Trem--------H~
E------------------------------------------------------|
B------------------------------------------------------|
G------------------------------------------------------|
D----------------------------------------------------6-|
A-3B0-11111111-3B0-11111111-3B0-11111111-556655886655--|
D-3B0-11111111-3B0-11111111-3B0-11111111---------------|

  B-- MMMMMMMM B-- MMMMMMMM B-- MMMMMMMM Trem----------------------|
E------------------------------------------------------------------|
B------------------------------------------------------------------|
G------------------------------------------------------------------|
D------------------------------------------------------------------|
A-3B0-11111111-3B0-11111111-3B0-11111111-556655886655--------------|
D-3B0-11111111-3B0-11111111-3B0-11111111-------------99776633113344|

  B-- MMMMMMMM B-- MMMMMMMM B-- MMMMMMMM Trem--------H~~~~
E---------------------------------------------------------|
B---------------------------------------------------------|
G---------------------------------------------------------|
D----------------------------------------------------6----|
A-3B0-11111111-3B0-11111111-3B0-11111111-556655886655-----|
D-3B0-11111111-3B0-11111111-3B0-11111111------------------|

  B-- MMMMMMMM B-- MMMMMMMM B-- MMMMMMMM O~~~~~~Slide
E----------------------------------------------------|
B----------------------------------------------------|
G----------------------------------------------------|
D----------------------------------------------------|
A-3B0-11111111-3B0-11111111-3B0-11111111-0------13/1-|
D-3B0-11111111-3B0-11111111-3B0-11111111-0------13/1-|

  B-- MMMMMMMM M M
E-----------------|
B-----------------|
G-----------------|
D-----------------|
A-3B0-11111111-0-0|
D-3B0-11111111-0-0|
Добавлено: 12.10.2013
Другие материалы по этой песне:
  • Аккорды и текст

Страница создана 12.10.2013
http://primanota.ru/misc-unsigned-bands/septicide-septic-genocide-chords.htm
Привет, Гость.
Предлагаем пройти революционный курс по гитаре.
Подарок от PrimaNota.Ru, забирай!