PrimaNota.ru - самый крупный в мире бесплатный архив песенных текстов, аккордов, табулатур и нот


Misc Unsigned Bands - Silent View - Sundial - таба

Регистрация Запомнить меня
Войти через:  Facebook Google Twitter Vk Yandex Mail.ru

Misc Unsigned Bands - Silent View - Sundial - таба

Печатать
Просмотров: 46
Sundial (from 2010 album: Mask Without Face) tabbed by Rob

6/8 timing

Chords
  E5    CMaj7  C6   G5   D5  E5    C#m  B    Em   Em7  E9sus4  CMaj  DMaj D5 Dsus4 DMaj
------------------------------------4------------------10------------2----5----3---2---|
------------------------------------5---4----8----8----7-------5-----3----x----x---x---|
--9-----9------9----12---7---9------6---4----9----7----7-------x-----2----2----2---2---|
--9-----9------7----12---7---9------6---4----9----9----7-------5-----0----0----0-------|
--7-----------------10---5---7------4---2----7----7------------3-----------------------|
--------8------8-----------------------------------------------------------------------|

Intro
E5 x4

Vs
E5 E5 Cmaj7 C6 x 4

Pre Chorus
G5 G5 D5 E5 Chorus C#m B plus fill x2

fill
-------------------|
-------------------|
-------------------|
-------------2-----|
-------2--4----4---|
--4----------------|

Post chorus
E5 D5 G5 Gmaj7 g---11--s/--7---|
               d-------------7-|

Vs
E5 E5 Cmaj7 C6 x 3

Pre Chorus
G5 G5 D5 E5

Chorus
C#m B plus fill x2    (with the C#m emphasise the root section then the top section before the change)

fill
-------------------|
-------------------|
-------------------|
-------------2-----|
-------2--4----4---|
--4----------------|

-----------------------------|
-----------------------------|
-----------------------------|
-----------------------------|
---2--2-2-2---s/-4--4-4-4----|
-----------------------------|

Bridge
Em E9sus4 C Major
D5 Dsus4 Dmaj Dmaj (fill with no middle finger on b string --5--3--2-- slide to --10- )
                                                                                -----
                                                                                --7--
--15---14----17-----14---15---22-------|
---------------------------------------|
--12---11----14-----11---12---19-------|
--14---12------------------------------|
---------------------------------------|
---------------------------------------|
"If indiscretion... "

Em7 E9sus4 C Major
D5 Dsus4 Dmaj Dmaj (fill with no middle finger on b string --5--3--2-- to chord)

Vs
E5 E5 Cmaj7 C6 x 3

Pre Chorus
G5 G5 D5 E5

Chorus
C#m B plus fill x4

fill
-------------------|
-------------------|
-------------------|
-------------2-----| (x4 to finish)
-------2--4----4---|
--4----------------|
Добавлено: 30.10.2013
Другие материалы по этой песне:
  • Аккорды и текст

Страница создана 30.10.2013
http://primanota.ru/misc-unsigned-bands/silent-view-sundial-chords.htm
Привет, Гость.
Предлагаем пройти революционный курс по гитаре.
Подарок от PrimaNota.Ru, забирай!