PrimaNota.ru - самый крупный в мире бесплатный архив песенных текстов, аккордов, табулатур и нот


Misc Unsigned Bands - Sabertooth Zombie - Blood And Cum - таба

Регистрация Запомнить меня
Войти через:  Facebook Google Twitter Vk Yandex Mail.ru

Misc Unsigned Bands - Sabertooth Zombie - Blood And Cum - таба

Печатать
Просмотров: 32
----------------------------------------------------------------------------
                 Blood And Cum - Sabertooth Zombie
----------------------------------------------------------------------------
Tabbed by: speedmetal777
Email: jdoc92@yahoo.com

Tuning: Standard

Tempo: Slow

Intro
e|-------------------------------------------------------------------------|
B|-------------------------------------------------------------------------|
G|-------------------------------------------------------------------------|
D|--------2-2--------------5-5-4-2-4---------------------------------------|
A|--------2-2--2-----3-----3-3-2-0-2---------------------------------------|
E|--10\---0-0--0-x6--1-x3--------------------------------------------------|
               PM    PM                                                 Repeat x4

Verse 
e|-------------------------------------------------------------------------|
B|-------------------------------------------------------------------------|
G|-------------------------------------------------------------------------|
D|--2~----3----------------------------------------------------------------|
A|--2~----3----3-3-2-0-2---------------------------------------------------|
E|--0~----1~---------------------------------------------------------------|

Repeat x2

e|-------------------------------------------------------------------------|
B|-------------------------------------------------------------------------|
G|-------------------------------------------------------------------------|
D|--2--------------5-5-4-2-4-----------------------------------------------|
A|--2--2-----3-----3-3-2-0-2-----------------------------------------------|
E|--0--0-x6--1-x3----------------------------------------------------------|
      PM    PM    [---PM----]

Repeat x4

e|-------------------------------------------------------------------------|
B|-------------------------------------------------------------------------|
G|-------------------------------------------------------------------------|
D|--2~----3----------------------------------------------------------------|
A|--2~----3----3-3-2-0-2---------------------------------------------------|
E|--0~----1~---------------------------------------------------------------|

Repeat x2

Tempo: Faster

e|-------------------------------------------------------------------------|
B|-------------------------------------------------------------------------|
G|-----------------9-9-9\7-7/10----------------11-11-11/12-12-12-----------|
D|-----------------x-x-x-x-x/x------------------x--x--x/x--x--x------------|
A|-----------------7-7-7\5-5/8------------------9--9--9/10-10-10-----------|
E|-0-0-0-0-0-0-0-----------------0-0-0-0-0-0-0-----------------------------|
  [------PM-----]               [------PM-----]

e|-------------------------------------------------------------------------|
B|-------------------------------------------------------------------------|
G|----------------12-12-12\11\-5-----------------5-5-5\4-9-----------------|
D|-----------------x--x--x\x-\-x-----------------x-x-x\x-x-----------------|
A|----------------10-10-10\9-\-3-----------------3-3-3\2-7-----------------|
E|-0-0-0-0-0-0-0------------------0-0-0-0-0-0-0----------------------------|
  [------PM-----]                [------PM-----]

Repeat x4


e|-------------------------------------------------------------------------|
B|-------------------------------------------------------------------------|
G|----------------------5-5-5---------------7-7-7---------------8-8-8------|
D|--2-2-2---5-4-2-4-2---5-5-5---5-4-2-4-2---7-7-7---5-4-2-4-2---8-8-8------|
A|--2-2-2---------------3-3-3---------------5-5-5---------------6-6-6------|
E|--0-0-0------------------------------------------------------------------|

e|-------------------------------------------------------------------------|
B|-------------------------------------------------------------------------|
G|-------------------------------------------------------------------------|
D|--7-5-4-5-4--------------------------------------------------------------|
A|-------------------------------------------------------------------------|
E|-------------------------------------------------------------------------|


Repeat x4
(Harmony comes in on second repeat)

Harmony
e|-------------------------------------------------------------------------|
B|-------------------------------------------------------------------------|
G|-------------------------------------------------------------------------|
D|---------9-7-5-7-5-----------9-7-5-7-5------------9-7-5-7-5--------------|
A|-------------------------------------------------------------------------|
E|-------------------------------------------------------------------------|

e|-------------------------------------------------------------------------|
B|-------------------------------------------------------------------------|
G|-------------------------------------------------------------------------|
D|--5-4-2-4-2--------------------------------------------------------------|
A|-------------------------------------------------------------------------|
E|-------------------------------------------------------------------------|


That's all I could figure out by ear, it's a very long song.


| /  slide up
| \  slide down
| h  hammer-on
| p  pull-off
| ~  vibrato
| +  harmonic
| x  Mute note
============================================================================
Добавлено: 22.12.2013
Другие материалы по этой песне:
  • Аккорды и текст

Страница создана 22.12.2013
http://primanota.ru/misc-unsigned-bands/sabertooth-zombie-blood-and-cum-chords.htm
Привет, Гость.
Предлагаем пройти революционный курс по гитаре.
Подарок от PrimaNota.Ru, забирай!