PrimaNota.ru - самый крупный в мире бесплатный архив песенных текстов, аккордов, табулатур и нот


Misc Unsigned Bands - Sam Corkery - To Die For - таба

Регистрация Запомнить меня
Войти через:  Facebook Google Twitter Vk Yandex Mail.ru

Misc Unsigned Bands - Sam Corkery - To Die For - таба

Печатать
Просмотров: 49
Уроки эстрадного вокала в Санкт-Петербурге
.= palm mute
^= bend
h= hammer on
p= pull off

E------------------------------------------------------|
B------------------------------------------------------|
G------------------------------------------------------|
D-33333333-----222-00000-0-0000-0-0-0-00000-0-0000-5-2-| X2
A-33333333-111-333-00000-0-0000-0-0-0-00000-0-0000-5-2-|
D-33333333-333-----00000-0-0000-0-0-0-00000-0-0000-5-2-|
  ........         .....   ....       .....   ....

E-------------------------|
B-------------------------|
G-------------------------|
D-------------------------| X2
A---8--7--8----8--7--8----|
D-00-00-00-6^-00-00-00-8^-|
  .. .. ..   .. .. ..


B---------------------------------|
G---------------------------------|
D-777-777-777-777-333-333-333-333-| X2
A-777-777-777-777-333-333-333-333-|
D-777-777-777-777-333-333-333-333-|

E------------------------------|
B-----------12------------10---|
G-----------14^-----------12---|
D-00-000-000---00-000-000------| X4
A-00-000-000---00-000-000------|
D-00-000-000---00-000-000------|

E---------------------------------------------------------|
B---------------------------------------------------------|
G---------------------------------------------------------|
D[-00--------X3-888-555]--X4------------8750-8750-8750-87-| X4
A[-00----58-----888-555]-----8750-------8750-8750-8750-87-|
D[-00-58--------888-555]----------8750--8750-8750-8750-87-|
(IN THE PARANTHASES IS ONE WHOLE PART)

E-----------|
B-----------|
G-----------|
D-5-3-2-1-0-|
A-5-3-2-1-0-|
D-5-3-2-1-0-|
Добавлено: 05.02.2014
Другие материалы по этой песне:
  • Аккорды и текст

Страница создана 05.02.2014
http://primanota.ru/misc-unsigned-bands/sam-corkery-to-die-for-chords.htm
Привет, Гость.
Предлагаем пройти революционный курс по гитаре.
Подарок от PrimaNota.Ru, забирай!