PrimaNota.ru - самый крупный в мире бесплатный архив песенных текстов, аккордов, табулатур и нот


Misc Unsigned Bands - Rock On - Pichle Saat Dinon Mein - таба

Регистрация Запомнить меня
Войти через:  Facebook Google Twitter Vk Yandex Mail.ru

Misc Unsigned Bands - Rock On - Pichle Saat Dinon Mein - таба

Печатать
Просмотров: 39
-------------------------------------------------------------------------------
                        Pichle saat dinon mein (Rock on)
-------------------------------------------------------------------------------

Tabbed by: Ankit Kapur
Email: ankit_1_kapur@yahoo.com
Youtube: http://in.youtube.com/user/MegaMaiden21

Tuning: Drop D (dADGBe)

<>  - Palm mute

 RIFF 1

e|---------------------------------------------------------------------------|
B|---------------------------------------------------------------------------|
G|-----7---------------------------------------------------------------------|
D|---5-7--2-2-2--------------------------------------------------------------|
A|---5-7--2-2-2--------------------------------------------------------------|
d|---5-7--2-2-2--------------------------------------------------------------| x 4


 RIFF 2

e|---------------------------------------------------------------------------|
B|---------------------------------------------------------------------------|
G|---4-4-4-4/5-5--2-2--------------------------------------------------------|
D|---4-4-4-4/5-5--2-2--------------------------------------------------------|
A|---2-2-2-2/3-3--0-0--5-<5-5-5>---------------------------------------------|
d|---------------------5-<5-5-5>---------------------------------------------| x 2
     v ^ v ^

e|---------------------------------------------------------------------------|
B|---------------------------------------------------------------------------|
G|---4-4-4-4/5-5--2-2--------------------------------------------------------|
D|---4-4-4-4/5-5--2-2--------------------------------------------------------|
A|---2-2-2-2/3-3--0-0--5-5---2-----------------------------------------------|
d|---------------------5-5---2-----------------------------------------------|
     v ^ v ^



 SOLO

e|---------------------------------------------------------------------------|
B|---------------------------------------------------------------------------|
G|-------------------------------------------7-9-7-9~------------------------|
D|--\9-9/8-9-5-------5-------------------------------------------------------|
A|-------------7-5-7---7-5-7-5-----------5-7---------------------------------|
d|-----------------------------7-5-0-5-7-------------------------------------|

e|---------------------------------------------------------------------------|
B|--------------------------------------------15-17-15--15-------------------|
G|---------------------------7-7-7-9~---16b18---------16--16-14-16-14--------|
D|--8-7-----------7-8-7----7-------------------------------------------------|
A|------10-7-7h10-------10---------------------------------------------------|
d|---------------------------------------------------------------------------|

e|---------------------------------------------------------------------------|
B|------------------------------------------15-17----------------------------|
G|----14-------------------------------14-16---------------------------------|
D|--17--17-14-17-14--14-12-14~----14-17--------------------------------------|
A|---------------------------------------------------------------------------|
d|---------------------------------------------------------------------------|

Now repeat the same scale with a tremolo


e|---------------------------------------------------------------------------|
B|--15-17-15--15-------------------------------------------------------------|
G|----------16--16-14-16-14----14--------------------------------------------|
D|---------------------------17--17-14-17-14--14-----------------------------|
A|------------------------------------------17--17-14-17-14-12-14-12-10-12-10|
d|---------------------------------------------------------------------------|
.................................tremolo......................................

e|---------------------------------------------------------------------------|
B|---------------------12-15-17----------------------------------------------|
G|---------------12-14-------------------------------------------------------|
D|----------12-14------------------------------------------------------------|
A|--10-12-14-----------------------------------------------------------------|
d|---------------------------------------------------------------------------|
.................................tremolo......................................

(end of tremolo)

e|---------------------------------------------------------------------------|
B|--17b19--17b19--17b20--17-17--15-17-15--15---------------------------------|
G|--------------------------------------16--16-14--14-15-14------------------|
D|-----------------------------------------------17--------17-14-14/---------|
A|---------------------------------------------------------------------------|
d|---------------------------------------------------------------------------|





| /  slide up
| \  slide down
| h  hammer-on
| p  pull-off
| ~  vibrato
| +  harmonic
| x  Mute note
| v  downstroke
| ^  upstroke
| b  bend
==============================================================================
Добавлено: 03.10.2013
Другие материалы по этой песне:
  • Аккорды и текст

Страница создана 03.10.2013
http://primanota.ru/misc-unsigned-bands/rock-on-pichle-saat-dinon-mein-chords.htm
Привет, Гость.
Предлагаем пройти революционный курс по гитаре.
Подарок от PrimaNota.Ru, забирай!