PrimaNota.ru - самый крупный в мире бесплатный архив песенных текстов, аккордов, табулатур и нот


Misc Unsigned Bands - Rock On - Title Song Hindi Movie - таба, видео

Регистрация Запомнить меня
Войти через:  Facebook Google Twitter Vk Yandex Mail.ru

Misc Unsigned Bands - Rock On - Title Song Hindi Movie - таба, видео

Печатать
Просмотров: 38
-------------------------------------------------------------------------------
                             Rock on - Title track
-------------------------------------------------------------------------------

Tabbed by: Ankit Kapur
Email: ankit_1_kapur@yahoo.com
Youtube: http://in.youtube.com/user/MegaMaiden21

Tuning: Drop D (dADGBe)

PM -> palm muting (written in < >)


R I F F   1:
e|----------------------|----------------------------------------------------|
B|----------------------|----------------------------------------------------|
G|----------------------|----------------------------------------------------|
D|-<7-7>-7/8----<5-5>-5-|----------------------------------------------------|
A|-<7-7>-7/8----<5-5>-5-|----------------------------------------------------|
d|-<7-7>-7/8----<5-5>-5-|----------------------------------------------------|  x 8 times

            

e|---------------------------------------------------------------------------|
B|---------------------------------------------------------------------------|
G|---------------------------------------------------------------------------|
D|---------------------------------------------------------------------------|
A|--7/-----------------------------------------------------------------------|
d|--7/-----------------------------------------------------------------------|  Slide up

Dil kya kehta hai mera
kya main bataoon
tum ye samjhoge shaayad
main pagal hoon"

(Repeat riff 1, 4 times)


Dil kya kehta hai mera
kya main bataoon

e|---------------------------------------------------------------------------|
B|---------------------------------------------------------------------------|
G|---------------------------------------------------------------------------|
D|--7------------------------------------------------------------------------|
A|--7------------------------------------------------------------------------|
d|--7------------------------------------------------------------------------|


tum ye samjhoge shaayad
main pagal hoon"

e|---------------------------------------------------------------------------|
B|---------------------------------------------------------------------------|
G|--5------------------------------------------------------------------------|
D|----7p5----5h7-------------------------------------------------------------|
A|--------7------------------------------------------------------------------|
d|---------------------------------------------------------------------------|


Dil karta hai tv tower pe
main chad jaoon

e|---------------------------------------------------------------------------|
B|---------------------------------------------------------------------------|
G|---------------------------------------------------------------------------|
D|--7------------------------------------------------------------------------|
A|--7------------------------------------------------------------------------|
d|--7------------------------------------------------------------------------|

chilla chilla ke main ye
sabse keh doon

e|---------------------------------------------------------------------------|
B|---------------------------------------------------------------------------|
G|---------------------------------------------------------------------------|
D|---------------------------------------------------------------------------|
A|--0\14/0-------------------------------------------------------------------|
E|--0\14/0-------------------------------------------------------------------|

(The next riff goes with the lyrics)

Rock on
hai ye waqt ka ishaara
rock on
har lamha pukaara


R I F F   2:
e|---------------------------------------------------------------------------|
B|---------------------------------------------------------------------------|
G|---------------------------------------------------------------------------|
D|--7--<7-7-7-7-7-7>---5--<5-5-5-5-5-5>---4--<4-4-4-4-4-4>---3-<3-3>---5-<5>-|
A|--7--<7-7-7-7-7-7>---5--<5-5-5-5-5-5>---4--<4-4-4-4-4-4>---3-<3-3>---5-<5>-|
d|--7--<7-7-7-7-7-7>---5--<5-5-5-5-5-5>---4--<4-4-4-4-4-4>---3-<3-3>---5-<5>-|

Rock on
yuheen dekhta hai kya tu
rock on
zindagi millegi na dubaara
Добавлено: 26.02.2014
Другие материалы по этой песне:
  • Аккорды и текст

Страница создана 26.02.2014
http://primanota.ru/misc-unsigned-bands/rock-on-title-song-hindi-movie-chords.htm
Привет, Гость.
Предлагаем пройти революционный курс по гитаре.
Подарок от PrimaNota.Ru, забирай!