PrimaNota.ru - самый крупный в мире бесплатный архив песенных текстов, аккордов, табулатур и нот


Misc Unsigned Bands - Robin Mather - Wenn Sie Lacht - таба

Регистрация Запомнить меня
Войти через:  Facebook Google Twitter Vk Yandex Mail.ru

Misc Unsigned Bands - Robin Mather - Wenn Sie Lacht - таба

Печатать
Просмотров: 46
WENN SIE LACHT - ROBIN MATHER (guitar tab)



capo 1st fret
all chords relative to capo
key: G#


t= right hand tap
h= hammer on
x= mute string right after playing the note


Bm      Cadd9     Cadd9*    Dsus4     Gmaj9     Em7*            C5  G5  D5

-2-     -0-       -3-       -3-       -5-       -3-             -x- -x- -x-
-3-     -3-       -3-       -3-       -3-       -3-             -x- -x- -x-
-4-     -0-       -0-       -2-       -0-       -0-             -5- -x- -7-
-4-     -2-       -2-       -0-       -4-       -2-             -5- -5- -7-
-2-     -3-       -3-       -x-       -5-       -2-             -3- -5- -5-
-x-     -x-       -x-       -x-       -x-       -0-             -x- -3- -x-


Hinweis: Wichtig ist hauptsächlich, dass man die Bridge und den Vers 2 kann. 
Alle anderen Stellen mit Ausnahme des Übergangs und des Mittelteils sind nur 
Wiederholungen bzw Variationen dieser beiden Elemente.




[Intro] x2

e|-------3---------------3------------------------------2h3------|
B|---3-x-3---3-------3-x-3---3------1-x-1h3--1------3-x-3----3---|
G|---0------0-0------0------0-0-----0---0---0-0-----2-------2-2--|
D|------------------------------------------------0--------------|
A|--------------------------------3------------------------------|
E|-3--------------0----------------------------------------------|

   G              G/E             C    (Cadd9)    D    (Dsus4)



[Vers 1] x4 "wir warn neulich mit Freunden draußen..."

e|-------3---------------3---------------------------------------2h3------|
B|---3-x-3-----3-------3-x-3-----3-------1-x-1h3----1------3-x-3------3---|
G|---0--------0-0------0--------0-0------0---0-----0-0-----2---------2-2--|
D|-------------------------------------------------------0----------------|
A|-------------------------------------3----------------------------------|
E|-3-----------------0----------------------------------------------------|

   G              G/E                  C    (Cadd9)      D    (Dsus4)



[Bridge] "und ehrlich ich weiß nicht warum..."                            


e|-----t-2------t-0------t-0----0-t-0------t-3----3-t-0------t-2h3--3-t-0-|
B|---3-t-3----3-t-3----0-t-0----0-t-0----1-t-1----1-t-1----3-t-3----3-t-0-|
G|---4-t------4-t------0-t------0-t-0----0-t-0----0-t-0----2-t--------t---|
D|-----t--------t--------t--------t--------t--------t----0---t--------t---|
A|-2---t----0---t--------t--------t----3---t--------t--------t--------t---|
E|-----t--------t----0---t--------t--------t--------t--------t--------t---|

   Bm                Em                C    (Cadd9)      D    (Dsus4)




e|-----t-2------t-0------t-0----0-t-0------t-3----3-t-0------t-2h3--------| 
B|---3-t-3----3-t-3----0-t-0----0-t-0----1-t-1----1-t-1----3-t-3----------|
G|---4-t------4-t------0-t------0-t-0----0-t-0----0-t-0----2-t------------|
D|-----t--------t--------t--------t--------t--------t----0---t------------|
A|-2---t----0---t--------t--------t----3---t--------t--------t------------|
E|-----t--------t----0---t--------t--------t--------t--------t------------|

   Bm                Em                C    (Cadd9)      D    (Dsus4)


e|-7-5-0




[Piano part] x2

e|-----t-3----3-t-3------t-3----3-t-0------t--------t--------t-2h3--3-t-0-|
B|---3-t-3----3-t-3----3-t-3----3-t-0----1-t-1h3--3-t-1----3-t-3----3-t-0-|
G|---0-t--------t------0-t--------t------0-t-0----0-t-0----2-t--------t---|
D|-----t--------t--------t--------t--------t--------t----0---t--------t---|
A|-----t--------t--------t--------t-----3--t--------t--------t--------t---|
E|-3---t--------t----0---t--------t--------t--------t--------t--------t---|

   G                 G/E                C    (Cadd9)      D    (Dsus4)



[Vers 2] x2 "was sie sagt interessiert mich..."

e|-----t-3----3-t-3------t-3----3-t-0------t--------t--------t-2h3--3-t-0-|
B|---3-t-3----3-t-3----3-t-3----3-t-0----1-t-1h3--3-t-1----3-t-3----3-t-0-|
G|---0-t--------t------0-t--------t------0-t-0----0-t-0----2-t--------t---|
D|-----t--------t--------t--------t--------t--------t----0---t--------t---|
A|-----t--------t--------t--------t-----3--t--------t--------t--------t---|
E|-3---t--------t----0---t--------t--------t--------t--------t--------t---|

   G                 G/E                C    (Cadd9)      D    (Dsus4)



[Bridge] "da ist kein Wort zu viel auf ihren Lippen..."                           
 

e|-----t-2------t-0------t-0----0-t-0------t-3----3-t-0------t-2h3--3-t-0-|
B|---3-t-3----3-t-3----0-t-0----0-t-0----1-t-1----1-t-1----3-t-3----3-t-0-|
G|---4-t------4-t------0-t------0-t-0----0-t-0----0-t-0----2-t--------t---|
D|-----t--------t--------t--------t--------t--------t----0---t--------t---|
A|-2---t----0---t--------t--------t----3---t--------t--------t--------t---|
E|-----t--------t----0---t--------t--------t--------t--------t--------t---|

   Bm                Em                C    (Cadd9)      D    (Dsus4)


e|-----t-2------t-0------t-0----0-t-0------t-3----3-t-0------t-2h3--------| 
B|---3-t-3----3-t-3----0-t-0----0-t-0----1-t-1----1-t-1----3-t-3----------|
G|---4-t------4-t------0-t------0-t-0----0-t-0----0-t-0----2-t------------|
D|-----t--------t--------t--------t--------t--------t----0---t------------|
A|-2---t----0---t--------t--------t----3---t--------t--------t------------|
E|-----t--------t----0---t--------t--------t--------t--------t------------|

   Bm                Em                C    (Cadd9)      D    (Dsus4)


e|-7-5-0





[Piano Part 2]

e|-----t-3----3-t-3------t-3----3-t-0------t--------t--------t-2h3--3-t-0-|
B|---3-t-3----3-t-3----3-t-3----3-t-0----1-t-1h3--3-t-1----3-t-3----3-t-0-|
G|---0-t--------t------0-t--------t------0-t-0----0-t-0----2-t--------t---|
D|-----t--------t--------t--------t--------t--------t----0---t--------t---|
A|-----t--------t--------t--------t-----3--t--------t--------t--------t---|
E|-3---t--------t----0---t--------t--------t--------t--------t--------t---|

   G                 G/E                C    (Cadd9)      D    (Dsus4)



[Übergang] "und ich hab die ganze Zeit versucht..."


e|-----t-3----3-t-0------t-5----5-t-3------t-0----0-t--------t-2----2-t---|
B|---1-t-1----1-t-1----3-t-3----3-t-3----2-t-2----2-t-2----3-t-3----3-t-3-|
G|---0-t--------t------0-t--------t------2-t--------t-0----2-t--------t-2-|
D|-----t--------t--------t--------t--------t--------t----0---t--------t---|
A|-3---t--------t----5---t--------t-----0--t--------t--------t--------t---|
E|-----t--------t--------t--------t--------t--------t--------t--------t---|

   C                 Gmaj9              A                D


e|-----t-3----3-t-0------t-5----5-t-3------0------0-0-0--2----------------|
B|---1-t-1----1-t-1----3-t-3----3-t-3------2------2-2-2--3----------------|
G|---0-t--------t------0-t--------t--------2------2-2-2--2----------------|
D|-----t--------t--------t--------t--------2------2-2-2--0----------------|
A|-3---t--------t----5---t--------t-----0--0------0-0-0-------------------|
E|-----t--------t--------t--------t---------------------------------------|

   C                 Gmaj9              A                D



[Mittelteil] 

   C5            G5            C5               G5           C5
...sagt dass ich alles für sie bin und dass ihr Leben keinen Sinn macht
    G5                 C5        D5          C5
ohne mich und dass sie ohne mich nirgends hingeht
           G5             C5            G5             C5
Wir können fliehen egal wohin, sie kann tanzen und ich singen,
                      G5             C5            D5
ich werd mich sattsehn an ihr, sie bewundern jeden Tag, denn sie


G                Em7*
weint nicht, die Zeit ist ihr zu schade
      Caddd9*        Dsus4
sie befreit sich aus jeder schlimmen Lage
        G             Em7*
und ich weiß nicht ob ich es ihr mal sage
     Cadd9*        Dsus4
aber heimlich würd ich gern mit ihr schlafen
         C          D
doch vor allem, vor allem will ich dass sie lacht


[Piano part 3]

G   -   Em7*   -   Cadd9*   -   Dsus4
G   -   Em7*   -   Cadd9*   -   Dsus4






[Bridge] x2   "..."     +    "und keiner versteht wie sie es macht"               
    


e|-----t-2------t-0------t-0----0-t-0------t-3----3-t-0------t-2h3--3-t-0-|
B|---3-t-3----3-t-3----0-t-0----0-t-0----1-t-1----1-t-1----3-t-3----3-t-0-|
G|---4-t------4-t------0-t------0-t-0----0-t-0----0-t-0----2-t--------t---|
D|-----t--------t--------t--------t--------t--------t----0---t--------t---|
A|-2---t----0---t--------t--------t----3---t--------t--------t--------t---|
E|-----t--------t----0---t--------t--------t--------t--------t--------t---|

   Bm                Em                C    (Cadd9)      D    (Dsus4)


e|-----t-2------t-0------t-0----0-t-0------t-3----3-t-0------t-2h3--------| 
B|---3-t-3----3-t-3----0-t-0----0-t-0----1-t-1----1-t-1----3-t-3----------|
G|---4-t------4-t------0-t------0-t-0----0-t-0----0-t-0----2-t------------|
D|-----t--------t--------t--------t--------t--------t----0---t------------|
A|-2---t----0---t--------t--------t----3---t--------t--------t------------|
E|-----t--------t----0---t--------t--------t--------t--------t------------|

   Bm                Em                C    (Cadd9)      D    (Dsus4)

e|-7-5-0-




[Outro] "mein Herz geht auf wenn sie lacht"


(x2)

e|-----t-3----3-t-3------t-3----3-t-0------t--------t--------t-2h3--3-t-0-|
B|---3-t-3----3-t-3----3-t-3----3-t-0----1-t-1h3--3-t-1----3-t-3----3-t-0-|
G|---0-t--------t------0-t--------t------0-t-0----0-t-0----2-t--------t---|
D|-----t--------t--------t--------t--------t--------t----0---t--------t---|
A|-----t--------t--------t--------t-----3--t--------t--------t--------t---| 
E|-3---t--------t----0---t--------t--------t--------t--------t--------t---| 

   G                 G/E                C    (Cadd9)      D    (Dsus4)



e|-----t-3------t-3------t-3------t-0------t--------t--------t-2h3----t-0-|
B|-----t-3------t-3------t-3------t-0------t-1h3----t-1----3-t-3------t-0-|
G|-----t--------t--------t--------t--------t-0------t-0----2-t--------t---|
D|-----t--------t--------t--------t--------t--------t----0---t--------t---|
A|-----t--------t--------t--------t-----3--t--------t--------t--------t---|
E|-3---t--------t----0---t--------t--------t--------t--------t--------t---|

   G                 G/E                C    (Cadd9)      D    (Dsus4)

e|-----t-3------t-3------t-3------t-0------t--------t--------t-2h3--------|
B|-----t-3------t-3------t-3------t-0------t-1h3----t-1----3-t-3----------|
G|-----t--------t--------t--------t--------t-0------t-0----2-t------------|
D|-----t--------t--------t--------t--------t--------t----0---t------------|
A|-----t--------t--------t--------t-----3--t--------t--------t------------|
E|-3---t--------t----0---t--------t--------t--------t--------t------------|

   G                 G/E                C    (Cadd9)      D    (Dsus4)


e|-7-5-0----------3---------|
B|-0-0-0------3---3---------|
G|-0-0-0----------0---------|
D|----------------0---------|
A|--------------------------|
E|---------3----------------|
Добавлено: 09.10.2013
Другие материалы по этой песне:
  • Аккорды и текст

Страница создана 09.10.2013
http://primanota.ru/misc-unsigned-bands/robin-mather-wenn-sie-lacht-chords.htm
Привет, Гость.
Предлагаем пройти революционный курс по гитаре.
Подарок от PrimaNota.Ru, забирай!