PrimaNota.ru - самый крупный в мире бесплатный архив песенных текстов, аккордов, табулатур и нот


Misc Unsigned Bands - Ryan Seiler - July - таба

Регистрация Запомнить меня
Войти через:  Facebook Google Twitter Vk Yandex Mail.ru

Misc Unsigned Bands - Ryan Seiler - July - таба

Печатать
Просмотров: 56
Song: July
Artist: Ryan Seiler
http://www.youtube.com/watch?v=fIZUt-8xXJc&feature=relmfu

Capo 5
Intro/Verse
    C              Am7            X              G2
e|--------3--------------3---------------3-------------3-----------|
B|----------1---1----------1---1-----------0---0---------0---0-----|
G|----0-------0------2-------2------2--------2-----0-------0-------|
D|------2--------------2--------------3--------------0-------------|
A|--3--------------0-----------------------------------------------|
E|--------------------------------1--------------3-----------------|

Pre-Chorus  "I dont even know where to start.."
   X                G2
e|--------3---------------3-----------|
B|----------0---0-----------0---0-----|
G|---2--------2-------0-------0-------|
D|-----3----------------0-------------|   x2
A|------------------------------------|
E|-1----------------3-----------------|

   X                        G2
e|--------3----3-----3-------------3-----3-----3---|
B|----------0----0-----0-------------0-----0-------|
G|---2-------2-----2-----2-----0-------0------0----|
D|-----3-------------------------0-----------------|   
A|-------------------------------------------------|
E|-1-------------------------3---------------------|

Chorus
G    Am               C/G
       July kills the winter nights
               Fmaj7                 C/G
       And the sun breaths life in a heavy heart
     Am               C/G
       We wade as our feet sink deep
              Fmaj7                 C/G
       In the cool clean sands of a rushing stream
     Am                       C/G
       Creation singing as we fall asleep
          Fmaj7              C/G
       My God I love what youve given me

Chords used:
C      032013
Am7    002213
X      103203
G2     300003
G      320003
Am     002210
C/G    332010
Fmaj7  033210


Notes: The G in the chorus is only a quick two strums before the Am.
I have no idea what the name of one of the chords is, so I gave it the name X

Progression/Lyrics:
Intro 

Verse: 
Warm in the daytime, cool in the evening
Wrap me up in a breeze, dog days of season
Keeping me drinking, ice tea and lemonade

Pre-chorus:
I dont even know where to start
Summers like a jump start to the heart
I dont even know, where to start

Chorus
July kills the winter nights
And the sun breaths life in a heavy heart
We wade as our feet sink deep
In the cool clean sands of a rushing stream
Creation singing as we fall asleep
My God I love what youve given me

Verse:
Afterwork swimming, barbecue weekends
Kickball at brookside park
Afternoon naps and nights on our backs 
As were studying the stars

Pre-chorus:
I dont even know where to start
Summers like a jump start to the heart
I dont even know, where to start

Chorus
July kills the winter nights
And the sun breaths life in a heavy heart
We wade as our feet sink deep
In the cool clean sands of a rushing stream
Creation singing as we fall asleep
My God I love what youve given me
Добавлено: 01.09.2013
Другие материалы по этой песне:
  • Аккорды и текст

Страница создана 01.09.2013
http://primanota.ru/misc-unsigned-bands/ryan-seiler-july-chords.htm
Привет, Гость.
Предлагаем пройти революционный курс по гитаре.
Подарок от PrimaNota.Ru, забирай!