PrimaNota.ru - самый крупный в мире бесплатный архив песенных текстов, аккордов, табулатур и нот


Misc Unsigned Bands - Racija - Predsolski Psihopat - таба

Регистрация Запомнить меня
Войти через:  Facebook Google Twitter Vk Yandex Mail.ru

Misc Unsigned Bands - Racija - Predsolski Psihopat - таба

Печатать
Просмотров: 54
Уроки эстрадного вокала в Санкт-Петербурге
My first tab :) You can also play it in half step down. Easier to transport ska
part on 1. and 2. string and it sounds a bit better. I will put down the chords
only, guess ryhthm on your own.
Tabbed by ear.

Intro:
e|---------------------------------------------7-----------------------------|
B|----------------------------------------------6----------------------------|
G|---55----7777--99999999-----------9~---------------------------------------|
D|---55-55-7777--99999999-10-9-7-9--9~---------------------------------------|
A|---33-55-5555--77777777-----------7~---7-----------------------------------|
E|------33---------------------------------------------pickscrape------------|
P.M.             ********  * * * *

Ska part:
e|---------------------------------------------------------------------------|
B|------5-5-5-5-5-5--6-6-----5-5-5-5-5-5-66----------------------------------|
G|------4-4-4-4-4-4--5-5-----4-4-4-4-4-4-55----------------------------------|
D|---------------------------------------------------------------------------|
A|---------------------------------------------------------------------------|
E|---------------------------------------------------------------------------|

Upstroke picking. This part is always the same, except at the very end where it slows down.
Same part can be played on e and B string in half step down tuning. I find it easier and 
better sounding this way..

eb|-1-1-1-1-1-1--2-2----------------------------------------------------------|
Bb|-1-1-1-1-1-1--2-2----------------------------------------------------------|
Gb|---------------------------------------------------------------------------|
Db|---------------------------------------------------------------------------|
Ab|---------------------------------------------------------------------------|
Eb|---------------------------------------------------------------------------|

0:25 .. ( mu stric flegmatično pritrdu ... ) This pattern repeats several times in song.

e|-----------------------------------------------------------------------------|
B|-----------------------------------------------------------------------------|
G|---55----7777--99999999------------------------------------------------------|
D|---55-55-7777--99999999-10-9-7-9---------------------------------------------|
A|---33-55-5555--77777777------------------------------------------------------|
E|------33---------------------------------------------------------------------|
P.M.             ********  * * * *

0:55 .. ( živ žava čist zares... )

e|---------------------------------------------------------------------------|
B|---------------------------------------------------------------------------|
G|--5-----7777---------------------------------------------------------------|
D|--5-555-7777--------(4x)---------------------------------------------------|
A|--3-555-5555---------------------------------------------------------------|
E|----333--------------------------------------------------------------------|

1:04 .. ( bil je prijazno bitje )

e|---------------------------------------------------------------------------------|
B|---------------------------------------------------------------------------------|
G|--------7777--5555--------7777--9999--------7777--5555--7777--99999999-----------|
D|--5555--7777--5555--5555--7777--9999--5555--7777--5555--7777--99999999-10-9-7-9--|
A|--5555--5555--3333--5555--5555--7777--5555--5555--3333--5555--77777777-----------|
E|--3333--------------3333--------------3333---------------------------------------|
P.M.                                                            ********  * * * *

1:51 .. same as 0:55 , 4x
then a little variation

e|----------------------------------------------------------------|
B|----------------------------------------------------------------|
G|--------7777--5555--------7777--9999--55-5--77-7----------------|
D|--5555--7777--5555--5555--7777--9999--55-5--77-7--5555----------|
A|--5555--5555--3333--5555--5555--7777--33-3--55-5--5555----------|
E|--3333--------------3333--------------------------3333----------|
P.M.                                    **    **


e|---------------------------------------------------------------------------|
B|---------------------------------------------------------------------------|
G|--55-5---------------------------------------------------------------------|
D|--55-5--55-5-3333---( this one 4 times )-----------------------------------|
A|--33-3--55-5-3333----------------------------------------------------------|
E|--------33-3-1111----------------------------------------------------------|
P.M.**    **

2:20 .. ( my guess is that bass and guitar are playing the same notes, only palmuted on guitar )

e|---------------------------------------------------------------------------|
B|---------------------------------------------------------------------------|
G|---------------------------------------------------------------------------|
D|---------------------------------------------------------------------------|
A|---------------------------------------------------------------------------|
E|--1-3-1-3-1-3-1-3-1-3--3-5-3-5-3-5-3--5-7-5-7-5-7-5-7----------------------|

Everything palmmuted, play each set of notes ( F and G, G and A, A and B ) many times.


After that everything is same, except at 3:17 when the ska part slows down ( and you 
move down the neck as well, play with it a little )

At the very end, some slides:

e|---------------------------------------------------------------------------|
B|---------------------------------------------------------------------------|
G|---------------------------------------------------------------------------|
D|---------------------------------------------------------------------------|
A|---------------------------------------------------------------------------|
E|-12\10\8\6\4\2p0-----------------------------------------------------------|

A bit hard to hear that one.

There you go, have fun and i hope it is as correct as possible :)
Добавлено: 24.10.2013
Другие материалы по этой песне:
  • Аккорды и текст

Страница создана 24.10.2013
http://primanota.ru/misc-unsigned-bands/racija-predsolski-psihopat-chords.htm
Привет, Гость.
Предлагаем пройти революционный курс по гитаре.
Подарок от PrimaNota.Ru, забирай!