PrimaNota.ru - самый крупный в мире бесплатный архив песенных текстов, аккордов, табулатур и нот


Misc Unsigned Bands - Razones De Cambio - Dejenme Volar - таба

Регистрация Запомнить меня
Войти через:  Facebook Google Twitter Vk Yandex Mail.ru

Misc Unsigned Bands - Razones De Cambio - Dejenme Volar - таба

Печатать
Просмотров: 47
Que onda chavos, pues esta cancion es una de mis favoritas, y hace tiempos busque 
el tab, pero no estaba por ningun lado, entonces fue la primera cancion que figure 
yo solito. Pues que la disfruten, esta 100% correcta!

Cancion: Dejenme Volar
Artista: Razones De Cambio
Album: Yo..,El Silencioso Dilema Del Espejo (2000)
Tabbed by Julio Caceres (yo!)


Guitarra 2 (electrica sin distorsion)
|---------------------------------------------------9-9-9h12-12-12---|
|---7--7h9-9-9/11-11--/11-11-7-7h9-9-11/12/11--7-7-------------------|
|--------------------------------------------------------------------|
|--------------------------------------------------------------------|
|--------------------------------------------------------------------|
|--------------------------------------------------------------------|

|---------------------------------------------------9-9-9h12-12-12---|
|---7--7h9-9-9/11-11--/11-11-7-7h9-9-11/12/11--7-7-------------------|
|--------------------------------------------------------------------|
|--------------------------------------------------------------------|
|--------------------------------------------------------------------|
|--------------------------------------------------------------------|

|--------------------------------------------------------------------|
|---7--7h9-9-9/11-11--/11-11-7-7h9-9-11/12/11--7-7~------------------|
|--------------------------------------------------------------------|
|--------------------------------------------------------------------|
|--------------------------------------------------------------------|
|--------------------------------------------------------------------|


----------------------|  
----------------------|   
--9---9--4---4--------|   
--9-9----6-6---6------|   
--7------6-------6----|   
-------------------0--|X2 

|Guitarra 1 (acustica)
│   C#m     A        B      A
|---------------------------------|
|--5-5-x---22222-xx-3-3-x--22222--|
|--6-6-x---22222-xx-3-3-x--22222--|
|--6-6-x---22222-xx-3-3-x--22222--|
|--4-4-x------------2-2-x---------|
|---------------------------------|X6
|
|Guitarra 2(electrica sin distorsion)
|-------------|--/12-11-9-9/-7-7---|
|-------------|--------------------|
|-------------|------------------9-|
|-------------|--------------------|
|-------------|--------------------|
|-------------|--------------------|

|----------------------------------------------------------|
|---12-----------12----------12----------12----------------|
|-9----9--8-9--9----9--8-9-9----9--8-9-9----9--8-8h9-8-----|
|------------------------------------------------------11~-|
|----------------------------------------------------------|
|----------------------------------------------------------|


[estrofa]
C#m     A         A     C#m  A           B      A                        
  Como un ave que navega, en un sueño de nunca acabar
C#m        A            B        A   C#m  A       B     A        C#m A B A C#m A B A
  Buscando la salida al despertar,    de una nueva dimension 
C#m  A                           A   C#m      A                   B        A        
  y ya no puede retener en sus sueño,  esa voz que invita y no se esfuerza por llegar
C#m        A      B        A           C#m   A   B    A     A B   
  hacer un hecho,  y no un deseo nada mas,       verdad

[si escuchan bien, durante la estrofa la guitarra 2 hace esto muchas veces]
|---------------|
|---------------|
|---9/11--9~----|
|---------------|
|---------------|
|---------------|



[coro:las dos guitarras tocan lo mismo, la electrica con distorsion]
[/////tambien justo antes del coro va un 'pick slide']
          C#m A  B     A       C#m    A          B    A       A     
Dejenme volar,  alla donde los sueños se ven caminar, whoa
          C#m  A B     A               C#m     A     B      A     A
Dejenme volar,  hasta que el cielo me sostenga eternamente, yeah
          C#m A B         A           C#m   A    B     A       
Dejenme volar,  volar sin miedo y sin direccion, whoao oh
A               C#m A B A (x6)
Dejenme volar!

Guitarra 2 (con distorsion)
|-------------|--/12-11-9-9/-7-7---|
|-------------|--------------------|
|-------------|------------------9-|
|-------------|--------------------|
|-------------|--------------------|
|-------------|--------------------|
                                   [nota: <> aqui se usa una 'pinch harmonic']
|-----------------------------------------------------------------------------|
|---12-----------12----------12-----------12----------------------------------|
|-9----9--8-9--9----9--8-9-9----9-<8>-9-9----9--<8>-8h9-8---------------------|
|---------------------------------------------------------11~-----------------|
|-----------------------------------------------------------------------------|
|---------------------------------------------------------------x-x-9~--x-x-9~|


[estrofa]
C#m    A                            A     C#m   A                   B   A
  Y se escucha entre los muros que rodean,  que encarcelan nuestros pasos
C#m        A           B         A        C#m  A              B     A   
  voces de locura que despiertan esperanzas, y nos enseñan a luchar
     A       B    
por libertad!

[coro:las dos guitarras tocan lo mismo, la electrica con distorsion]
////Pick slide
          C#m A  B     A       C#m    A          B    A       A     
Dejenme volar,  alla donde los sueños se ven caminar, whoa
          C#m  A B     A               C#m     A     B      A     A
Dejenme volar,  hasta que el cielo me sostenga eternamente, yeah
          C#m A B         A           C#m   A    B     A             
Dejenme volar,  volar sin miedo y sin direccion, whoao oh
A              ** C#m A B A
Dejenme volar!
C#m A    B A
volaaaar, 
C#m  A   B        A                 C#m A B A (x2) 
dejenme, dejenme, dejenme volaaar!


Guitarra 2
**esto empieza aqui
-----9~----7---7-9--|----12p9----9-----12p9----9--|-12--14p12--14b-14b--/16---|
--/9-----9---9------|--9------12-----9------12----|---------------------------|
--------------------|-----------------------------|---------------------------|
--------------------|-----------------------------|---------------------------|
--------------------|-----------------------------|---------------------------|
--------------------|-----------------------------|---------------------------|

--141br--12--14b-14b--12p9--|----7---7-9--|----7---7--9--11--12--/14--/16-|
----------------------------|--9---9------|--9---9------------------------|
----------------------------|-------------|-------------------------------|
----------------------------|-------------|-------------------------------|
----------------------------|-------------|-------------------------------|
----------------------------|-------------|-------------------------------|


Guitarras 1&2
   C#m      A       B       A
|---------------------------------|------------------------------------|
|--5-5-x---22222-xx-3-3-x--22222--|-5-5------5-----5-5-----5-----------|
|--6-6-x---22222-xx-3-3-x--22222--|-6---6------6---6---6-----6---------|
|--6-6-x---22222-xx-3-3-x--22222--|-6-----6------6-6-----6-----6--6----|
|--4-4-x------------2-2-x---------|-4--------------4----------------4--|
|---------------------------------|------------------------------------|


Guitarra 2 (electrica sin distorsion)
|---------------------------------------------------9-9-9h12-12-12---|
|---7--7h9-9-9/11-11--/11-11-7-7h9-9-11/12/11--7-7-------------------|
|--------------------------------------------------------------------|
|--------------------------------------------------------------------|
|--------------------------------------------------------------------|
|--------------------------------------------------------------------|

|--------------------------------------------------------------------|
|---7--7h9-9-9/11-11--/11-11-7-7h9-9-11/12/11--7-7~------------------|
|--------------------------------------------------------------------|
|--------------------------------------------------------------------|
|--------------------------------------------------------------------|
|--------------------------------------------------------------------|



Notas: (perdon no me se los terminos en español)
h hammer on
p pull off
<> Pinch harmonic
~ vibratto
b bend
r release
/ slide
x muted note/nota silenciada
Добавлено: 11.09.2013
Другие материалы по этой песне:
  • Аккорды и текст

Страница создана 11.09.2013
http://primanota.ru/misc-unsigned-bands/razones-de-cambio-dejenme-volar-chords.htm
Привет, Гость.
Предлагаем пройти революционный курс по гитаре.
Подарок от PrimaNota.Ru, забирай!