PrimaNota.ru - самый крупный в мире бесплатный архив песенных текстов, аккордов, табулатур и нот


Misc Unsigned Bands - Oli Brown Band - Open Road - таба

Регистрация Запомнить меня
Войти через:  Facebook Google Twitter Vk Yandex Mail.ru

Misc Unsigned Bands - Oli Brown Band - Open Road - таба

Печатать
Просмотров: 51
OPEN ROAD
As recorded by The Oli Brown Band
(From the 2008 Album OPEN ROAD)

Transcribed by tilleking
        

Words and Music by Oli Brown
Arranged by Oli Brown

Here are the main parts for the song, except for the high bit and the solo.
The track's from Oli's fantastic "Open Road" debut album (released by "Ruf"
records, and it sounds like he might use a plectrum on the recording, but I 
finger-pick the riff, because I think it's easier.

Visit Oli's website for more info:
http://www.oliselectricblues.co.uk/

Gtr I (E A D G B E) - 'Oli Brown'

    Tempo=92bmp 
  
    Intro
    
    Gtr I
                                          4x
||----0--------------|---0----------------||
||o---0--/3--2-2p0---|---0--/3--2-0-0----o||
||-------/4--2-2p0---|------/4--2-0h1-----||
||-----------------2-|--------------------||
||o------------------|-------------------o||
||--0----------------|-0------------------||


 Verse
|----------|---0---------------||----0--------------|---0-----------------||
|----------|---0--/3--2-0-0----||o---0--/3--2-2p0---|---0--/3--2-0-0-----o||
|----------|------/4--2-0h1----||-------/4--2-2p0---|------/4--2-0h1------||
|----------|-------------------||-----------------2-|---------------------||
|----------|-------------------||o------------------|--------------------o||
|-0--------|-0-----------------||--0----------------|-0-------------------||


 Chorus                    *1/4 bend
|-----------------|---------------|---0--------------|---0----------------|
|-----------------|---------------|---0--/3--2-2p0---|---0--/3--2-0-0-----|
|-----------------|-2-------------|------/4--2-2p0---|------/4--2-0h1-----|
|-----4--4---(4)--|-2-------------|----------------2-|--------------------|
|-----4--4---(4)--|-0-------------|------------------|--------------------|
|-0h1/2--2---(2)--|--------3b*----|-0----------------|-0------------------|
                           
                               *1/4 bend
|-----------------|-------------------|---0--------------|---0---------------|
|-----------------|-------------------|---0--/3--2-2p0---|---0--/3--2-0-0----|
|-----------------|-2-----------------|------/4--2-2p0---|------/4--2-0h1----|
|-----4--4---(4)--|-2----5-7----------|----------------2-|-------------------|
|-----4--4---(4)--|-0--0--------------|------------------|-------------------|
|-0h1/2--2---(2)--|------------3b*----|-0----------------|-0-----------------|



Tablature Legend
----------------
 h   - hammer-on
 p   - pull-off
 b   - bend
 pb  - pre-bend
 r   - bend release (if no number after the r, then release immediately)
 /\  - slide into or out of (from/to "nowhere")
 s   - legato slide
 S   - shift slide
 - natural harmonic
[n]  - artificial harmonic
n(n) - tapped harmonic
 ~   - vibrato
 tr  - trill
 T   - tap
 TP  - trem. picking
 PM  - palm muting
\n/  - tremolo bar dip; n = amount to dip
 \n  - tremolo bar down
 n/  - tremolo bar up
/n\  - tremolo bar inverted dip
 =   - hold bend; also acts as connecting device for hammers/pulls
 <> - volume swell (louder/softer)
 x   - on rhythm slash represents muted slash
 o   - on rhythm slash represents single note slash

Misc Legend
-----------
 |  - bar
||  - double bar
||o - repeat start
o|| - repeat end
*|  - double bar (ending)
 :  - bar (freetime)
 $  - Segno
 &  - Coda
Добавлено: 22.09.2013
Другие материалы по этой песне:
  • Аккорды и текст

Страница создана 22.09.2013
http://primanota.ru/misc-unsigned-bands/oli-brown-band-open-road-chords.htm
Привет, Гость.
Предлагаем пройти революционный курс по гитаре.
Подарок от PrimaNota.Ru, забирай!