PrimaNota.ru - самый крупный в мире бесплатный архив песенных текстов, аккордов, табулатур и нот


Misc Unsigned Bands - Omar Pedrini - Sangue Impazzito - таба

Регистрация Запомнить меня
Войти через:  Facebook Google Twitter Vk Yandex Mail.ru

Misc Unsigned Bands - Omar Pedrini - Sangue Impazzito - таба

Печатать
Просмотров: 37
Sangue impazzito solo

drop down in A

|------------------------------|-----------------------------|
|------------------------------|-----------------------------|
|------------------------------|-----------------------------|
|------------------------------|------3-2-3-2----------------|
|--0/2--2-2/3--3-3/5--5-5/7--7-|--8--------------------------|
|------------------------------|-----------------------------|

|------------------------------|---------------------|-----------|
|------------------------------|---------------------|-----------|
|------------------------------|---------------------|-----------|
|------------------------------|--------3h3p2-5-3-2--|---5-7-7^^-|
|--0/2--2-2/3--3-3/5--5-5/7--7-|--8------------------|-s7--------|
|------------------------------|---------------------|-----------|

|-----------------------------------------------------------------------|
|-----------------------------------------------------------------------|
|--------7h9^^^--7h9-5h7p5--5--5h7p5
Добавлено: 07.01.2014
Другие материалы по этой песне:
  • Аккорды и текст

Страница создана 07.01.2014
http://primanota.ru/misc-unsigned-bands/omar-pedrini-sangue-impazzito-chords.htm
Привет, Гость.
Предлагаем пройти революционный курс по гитаре.
Подарок от PrimaNota.Ru, забирай!