PrimaNota.ru - самый крупный в мире бесплатный архив песенных текстов, аккордов, табулатур и нот


Misc Unsigned Bands - Noise Method - Stoner - бас-таба

Регистрация Запомнить меня
Войти через:  Facebook Google Twitter Vk Yandex Mail.ru

Misc Unsigned Bands - Noise Method - Stoner - бас-таба

Печатать
Просмотров: 39
Stoner
Standard Tuning EADG
Transcribed by:roy pan: bassist of Noise Method

Intro
G----------------------------------|
D----------------------------------|
A----------------------------------|
E--5--5-5-5-5--1-111111-3-333333---|

Verse
G------------------------------------45754------------|
D------------------------------------------5----------|
A-------------------------23532-----------------------|
E---5-875-875-5-875-875-1--------1-3------------------|

Chorus
G-----------------------------------------------|
D-----------------------------------------------|
A-----------------55-77-----------3333/5555-----|
E--5555-5555-5555-------1111-1111---------------|

play this first and third times

G-----------------------------------------------|
D-----------------------------------------------|
A-----------------55-77-----------3333/5555-----|
E--5555-5555-5555-------1111-1111---------------|

play this second and fourth times

Bridge
G---------------------------------|
D---------------------------------|
A---------------------------------|(x2)
E--5----1--3----5----1--3---------|

G-------------------------5-7-5----------|
D--7--10-9-10-9-7--3-5-3-----------------|
A--0~------------------------------------|(x2)
E----------------------------------------|

Bridge 2
G---------------------------------------------|
D------------------------3---3----5-3---3-5---|
A-------------------------------------5-------|
E-5-87-875-5-87-875--1-1---1----3-------------|

Solo
G---------------------------------------------|
D---------------------------------------------|
A------------------------33-55-3--------------|
E--55-88-7-88-77-5-11-33-1--------------------|

Damn skippy
Добавлено: 01.08.2013
Другие материалы по этой песне:
  • Аккорды и текст

Страница создана 01.08.2013
http://primanota.ru/misc-unsigned-bands/noise-method-stoner-chords.htm
Привет, Гость.
Предлагаем пройти революционный курс по гитаре.
Подарок от PrimaNota.Ru, забирай!